Incubus - Make Yourself Chords & Tabs

 

Make Yourself Chords & Tabs

Incubus Chords & Tabs

Version: 1 Type: Tab 0 ratings
1 star 2 stars 3 stars 4 stars 5 stars
comments

Make Yourself Tab

Incubus
Make yourself

Intro/Verse

E|----------------------------------------
B|----------------------------------------
D|----------------------------------------
G|--9----55---55--------9--55---55--------
A|--9----55---55---5-7--9--55---55--5577--
E|--7----33-0-33---6-6--7--33-0-33--6666--   

poat-verse
(played After first verse)

E|----------------------------
B|----------------------------
D|--7-7-7--33-33--------------
G|--7-7-7--33-33---5-5-5--55--
A|--5-5-5--11-11---5-5-5--55--
E|-----------------3-3-3--33--   

Chorus

E|------------------------------------------------------------
B|------------------------------------------------------------
D|--7-7-7--33-33------------------7-7-7--33-33----------------
G|--7-7-7--33-33---5-5-5--55--55--7-7-7--33-33-5-5-5--33--33--
A|--5-5-5--11-11---5-5-5--55--55--5-5-5--11-11-5-5-5--33--33--
E|-----------------3-3-3--33--33---------------3-3-3--11--11--   
[ Tab from: http://www.guitartabs.cc/tabs/i/incubus/make_yourself_tab.html ]
E|--------------------------------------------------------
B|--------------------------------------------------------
D|--7-7-7--33-33----------55-55------7-7------------------
G|--7-7-7--33-33---5-5-5--55-55------7-7-7--33-33--5-5-5--
A|--5-5-5--11-11---5-5-5--33-33------5-5-5--11-11--5-5-5--
E|-----------------3-3-3---------------------------3-3-3-- 


BreakDown
1st part:

E|-----------------------------------------------------
B|-----------------------------------------------------
D|-----------------------------------------------------
G|--7-------9------5----------5-----7-----9---5--5577--
A|--9-------7------7----------7-----9-----7---7--7777--
E|----------------------------6------------------6666--   
2nd part

E|---------------------------------
B|---------------------------------
G|---------------------------------
D|---7----9---------5-----5-5-5----
A|---9----7---------7--------------
E|------------------------6-6-6----
 

E|----------------------------------
B|----------------------------------
G|----------------------------------
D|--9-----55------55----55---5-5-5--
A|--9-----55------55----55----------
E|--7-----33---0--33--0-33---6-6-6-- 
 

ending 

E|------------------------
B|------------------------
D|------------------------
G|--9----55---55----------
A|--9----55---55----5577--
E|--7----33-0-33----6666-- 
Comments