Incubus - Make Yourself Chords & Tabs

 

Make Yourself Chords & Tabs

Incubus Chords & Tabs

Version: 3 Type: Bass Tab 0 ratings
1 star 2 stars 3 stars 4 stars 5 stars
comments

Make Yourself Bass Tab

   
Band : Incubus
Song : Make Yourself (Bass Tablature)
Album: Make Yourself
Tabbed By: TroaLance17

Guitar intro then play at heavy part with:

Verse
G-----------------------------------------|
D-----------------------------------------|
A-----------------------------------------|   x2
E--7-3-3--3-3-6-6-6--7-3-3--3-3-6-6-6-6---|

Pre-chorus (listen for when to play notes)
G-----------------------------------------------|
D-----------------------------------------------|
A-----------------------------------------------|
E-10-10-10-10-10-6-6-6-6-6-6-3-3-3-3-3-3-3-3-3--|

Verse x2  (after guitar intro)

Chorus (listen for when to play notes)
G--------------------------------------------------|
D--------------------------------------------------|
A--------------------------------------------------|
E-10-10-10-10-10-6-6-6-6-6-6-3-3-3-3-3-3-3-3-3-3-3-|
[ Tab from: http://www.guitartabs.cc/tabs/i/incubus/make_yourself_btab_ver_3.html ]
G----------------------------------------------------|
D----------------------------------------------------|
A----------------------------------------------------|
E-10-10-10-10-10-6-6-6-6-6-6-3-3-3-3-3-3-3-1-1-1-1-1-|

G------------------------------------------------------|
D------------------------------------------------------|
A------------------------------------------------------|
E-10-10-10-10-10-6-6-6-6-6-6-3-3-3-3-3-3/8-8-8-8-3-3-3-|

G----------------------------------------------------|
D----------------------------------------------------|
A----------------------------------------------------|
E-10-10-10-10-10-6-6-6-6-6-6-3-3-3-3-3-3-3-1-1-1-1-1-|

Bridge (listen for when to come in):
G-------------------|
D-------------------|
A---9--7---7--------|  x4
E-------------6-----|

5th time:
G-------------------|
D-------------------|
A---9--7---7--------|  x3
E-------------6-6-6-|

G------------------      G--------------------|
D------------------      D--------------------|
A------------------ x3   A--------------------|
E---7-3-3--3-3-6-6-      E---7-3-3--3-3-66666-|   (last time)

Chorus

Outro
G------------------------|
D------------------------|
A------------------------|  x4
E--7-3-3--3-3-6-6-6-6-6--|

End of Song
Comments