Incubus - Make A Move Chords & Tabs

 

Make A Move Chords & Tabs

Incubus Chords & Tabs

Version: 1 Type: Tab 0 ratings
1 star 2 stars 3 stars 4 stars 5 stars
comments

Make A Move Tab

Make a Move
by Incubus

Guitar by Mike Einziger
Transcribed by suicune18@hotmail.com
Tunning EADGBE

Intro1 x2
e ---------------------------------------------------------------------------------------------------------|
B ---------------------------------------------------------------------------------------------------------|
G ---------------------------------------------------------------------------------------------------------|
D -----------------x---5---------------------x---5---------------------x---5-----------------------x---2---|
A ---7---5---7---x---5---5---7---5---7---x---5---5---7---5---7---x---5---5---5/7---7---7---x---2-----------|
E -----------------x---3---------------------x---3---------------------x---3------------------------x---0--|

Intro2 x2
e ---------------------------------------------------------------------------------------------------------|
B ---------------------------------------------------------------------------------------------------------|
G ---------------------------------------------------------------------------------------------------------|
D -----------------x---2---------------------x---2---------------------x---2-----------------------x---5---|
A ---7---5---7---x---2---5---7---5---7---x---2---5---7---5---7---x---2---5---5/7---7---7---x---5-----------|
E -----------------x---0---------------------x---0---------------------x---0------------------------x---3--|

Verse x4
e ---------------------------------------------------------------------------------------------------------|
B ---------------------------------------------------------------------------------------------------------|
G ---------------------------------------------------------------------------------------------------------|
D -----------------x---2---------------------x---2---------------------x---2-----------------------x---5---|
A ---7---5---7---x---2---5---7---5---7---x---2---5---7---5---7---x---2---5---5/7---7---7---x---5-----------|
E -----------------x---0---------------------x---0---------------------x---0------------------------x---3--|

Prechorus x1
e ------------------------------------------------------------------------------------------|
B ------------------------------------------------------------------------------------------|
G ------------------------------------------------------------------------------------------|
D ---7---7---7---7---7---7---7---7---7---7---7---7---7---7---9---5---7---9---5---7---9---5--|
A ---7---7---7---7---7---7---7---7---7---7---7---7---7---7---9---5---7---9---5---7---9---5--|
E ---5---5---5---5---5---5---5---5---5---5---5---5---5---5---7---3---5---7---3---5---7---3--|

e ---------------------------------------------------------------------------------------|
B ---------------------------------------------------------------------------------------|
G ------------------------------------------------------------------------------------7--|
D ---7---7---7---7---7---7---7---7---7---7---7---7---7---7---9---5---2---9---7-----------|
A ---7---7---7---7---7---7---7---7---7---7---7---7---7---7---9---5---2---9---5-----------|
E ---5---5---5---5---5---5---5---5---5---5---5---5---5---5---7---3---0---7---------------|

Chorus x2
e ---------------------------------------------------------------------------------------------------------|
B ---------------------------------------------------------------------------------------------------------|
G ---------------------------------------------------------------------------------------------------------|
D -----------------x---5---------------------x---5---------------------x---5-----------------------x---2---|
A ---7---5---7---x---5---5---7---5---7---x---5---5---7---5---7---x---5---5---5/7---7---7---x---2-----------|
E -----------------x---3---------------------x---3---------------------x---3------------------------x---0--|

-------------------------------------------------Bass---------------------------------------------------------

Verse2 x4
e ---------------------------------------------------------------------------------------------------------|
B ---------------------------------------------------------------------------------------------------------|
G ---------------------------------------------------------------------------------------------------------|
D -----------------x---2---------------------x---2---------------------x---2-----------------------x---5---|
A ---7---5---7---x---2---5---7---5---7---x---2---5---7---5---7---x---2---5---5/7---7---7---x---5-----------|
E -----------------x---0---------------------x---0---------------------x---0------------------------x---3--|
[ Tab from: http://www.guitartabs.cc/tabs/i/incubus/make_a_move_tab.html ]
Prechorus2 x1
e ------------------------------------------------------------------------------------------|
B ------------------------------------------------------------------------------------------|
G ------------------------------------------------------------------------------------------|
D ---7---7---7---7---7---7---7---7---7---7---7---7---7---7---9---5---7---9---5---7---9---5--|
A ---7---7---7---7---7---7---7---7---7---7---7---7---7---7---9---5---7---9---5---7---9---5--|
E ---5---5---5---5---5---5---5---5---5---5---5---5---5---5---7---3---5---7---3---5---7---3--|

e ---------------------------------------------------------------------------------------|
B ---------------------------------------------------------------------------------------|
G ------------------------------------------------------------------------------------7--|
D ---7---7---7---7---7---7---7---7---7---7---7---7---7---7---9---5---2---9---7-----------|
A ---7---7---7---7---7---7---7---7---7---7---7---7---7---7---9---5---2---9---5-----------|
E ---5---5---5---5---5---5---5---5---5---5---5---5---5---5---7---3---0---7---------------|

Chorus2 x2
e ---------------------------------------------------------------------------------------------------------|
B ---------------------------------------------------------------------------------------------------------|
G ---------------------------------------------------------------------------------------------------------|
D -----------------x---5---------------------x---5---------------------x---5-----------------------x---2---|
A ---7---5---7---x---5---5---7---5---7---x---5---5---7---5---7---x---5---5---5/7---7---7---x---2-----------|
E -----------------x---3---------------------x---3---------------------x---3------------------------x---0--|

Bridge
e ---------------------7---------------------7---------------------------|
B -----------------------------------------------------------------------|
G ---7---9---7---7-------7---9---7---7-------7---9---7---7/12------------|
D -----------------------------------------------------------------------|
A -----------------------------------------------------------------------|
E -----------------------------------------------------------------------|

e ---------------------12--------------------------12----------------------------------|
B -------------------------------------------------------------------------------------|
G ---14---12---12--------12---14---12---12--------12---14---12---12/17-----------------|
D -------------------------------------------------------------------------------------|
A -------------------------------------------------------------------------------------|
E -------------------------------------------------------------------------------------|

e ---------------------17--------------------------17----------------------------------|
B -------------------------------------------------------------------------------------|
G ---19---17---17--------17---19---17---17--------17---19---17---17/19-----------------|
D -------------------------------------------------------------------------------------|
A -------------------------------------------------------------------------------------|
E -------------------------------------------------------------------------------------|

e ---------------------19--------------------------19------------------------|
B ---------------------------------------------------------------------------|
G ---21---19---19--------19---21---19---19--------19---21---19---------------|
D ---------------------------------------------------------------------------|
A ---------------------------------------------------------------------------|
E ---------------------------------------------------------------------------|

Prechorus3 x1

e ------------------------------------------------------------------------------------------|
B ------------------------------------------------------------------------------------------|
G ------------------------------------------------------------------------------------------|
D ---7---7---7---7---7---7---7---7---7---7---7---7---7---7---9---5---7---9---5---7---9---5--|
A ---7---7---7---7---7---7---7---7---7---7---7---7---7---7---9---5---7---9---5---7---9---5--|
E ---5---5---5---5---5---5---5---5---5---5---5---5---5---5---7---3---5---7---3---5---7---3--|

e ---------------------------------------------------------------------------------------|
B ---------------------------------------------------------------------------------------|
G ------------------------------------------------------------------------------------7--|
D ---7---7---7---7---7---7---7---7---7---7---7---7---7---7---9---5---2---9---7-----------|
A ---7---7---7---7---7---7---7---7---7---7---7---7---7---7---9---5---2---9---5-----------|
E ---5---5---5---5---5---5---5---5---5---5---5---5---5---5---7---3---0---7---------------|

Chorus3 x4
e ---------------------------------------------------------------------------------------------------------|
B ---------------------------------------------------------------------------------------------------------|
G ---------------------------------------------------------------------------------------------------------|
D -----------------x---5---------------------x---5---------------------x---5-----------------------x---2---|
A ---7---5---7---x---5---5---7---5---7---x---5---5---7---5---7---x---5---5---5/7---7---7---x---2-----------|
E -----------------x---3---------------------x---3---------------------x---3------------------------x---0--|

You can play "0" on string 6 AND NOT THE "X" if you want to... Good luck!
Comments