Incubus - Made For Tv Movie Chords & Tabs

 

Made For Tv Movie Chords & Tabs

Incubus Chords & Tabs

Version: 4 Type: Tab 0 ratings
1 star 2 stars 3 stars 4 stars 5 stars
comments

Made For Tv Movie Tab

this was done one boring afternoon, i didnt put much time to this,
but i still think its a good tab...
..but il let you decide! please comment and rate!
go buy the abum if you havnt already, its amazing!


Intro/Verse - slight dirty tone
e---------------------------------------------
b---------------------------------------------
g-----0-----4---0--------0-----4------------- x6
d---2---2-----5--------2---2-----5-----------
a-3---------------6---3---------------5-------
E-----------------------------------6---------

Chorus - heavy distortion
e------------------------------------------------------------
b------------------------------------------------------------
g-----------------------------------5-5-5-5-5-5-5-5--7------- x2
d-5-5-5-5-5-5-5-5--2-2-2-2-2-2-2-2--5-5-5-5-5-5-5-5--7--8-8--
a-5-5-5-5-5-5-5-5--2-2-2-2-2-2-2-2--3-3-3-3-3-3-3-3--5--8-8--
E-3-3-3-3-3-3-3-3--0-0-0-0-0-0-0-0----------------------6-6--

Solo - distortion and phase
e--------12--------------10-------------12-----------------------------------
b-10/12~----12-10-10/12~----8-10-10/12~----12-10-8-10-8-10-7-8-5-7-3-5-3-5---
g----------------------------------------------------------------------------
d----------------------------------------------------------------------------
a----------------------------------------------------------------------------
E----------------------------------------------------------------------------

slight dirty tone
e---------------------------------------------
b---------------------------------------------
g-----0-----4---0----------0-----4------------- x4
d---2---2-----5----------2---2-----5-----------
a-3---------------6---3---------------5-------
E-----------------------------------6---------
[ Tab from: http://www.guitartabs.cc/tabs/i/incubus/made_for_tv_movie_tab_ver_4.html ]
heavy distortion
e------------------------------------------------------------
b------------------------------------------------------------
g-----------------------------------5-5-5-5-5-5-5-5--7------- x2
d-5-5-5-5-5-5-5-5--2-2-2-2-2-2-2-2--5-5-5-5-5-5-5-5--7--8-8--
a-5-5-5-5-5-5-5-5--2-2-2-2-2-2-2-2--3-3-3-3-3-3-3-3--5--8-8--
E-3-3-3-3-3-3-3-3--0-0-0-0-0-0-0-0----------------------6-6--

e------------------------------------------------------------
b------------------------------------------------------------
g-----------------------------------5-5-5-5-5-5-5-5--7------- 
d-5-5-5-5-5-5-5-5--2-2-2-2-2-2-2-2--5-5-5-5-5-5-5-5--7--8-8--
a-5-5-5-5-5-5-5-5--2-2-2-2-2-2-2-2--3-3-3-3-3-3-3-3--5--8-8--
E-3-3-3-3-3-3-3-3--0-0-0-0-0-0-0-0----------------------6-6--
  x x x x x x x x  x x x x x x x x  x x x x x x x x  x  x x

e------------------------------------------------------------
b------------------------------------------------------------
g-----------------------------------5-5-5-5-5-5-5-5--7------- 
d-5-5-5-5-5-5-5-5--2-2-2-2-2-2-2-2--5-5-5-5-5-5-5-5--7--8-8--
a-5-5-5-5-5-5-5-5--2-2-2-2-2-2-2-2--3-3-3-3-3-3-3-3--5--8-8--
E-3-3-3-3-3-3-3-3--0-0-0-0-0-0-0-0----------------------6-6--

Bridge - distortion
e------------------------------------------------------------
b------------------------------------------------------------
g------------------------------------------------------------
d-----------------------------------------5-5-5--------------
a-3^r-1-------1---1---3^r-1-------1---1---4-4-4--------------
E-------3-1-3---3-----------3-1-3---3-----5-5-5--------------

finally, play the chorus riff in a semi-clean tone, play chords loosly with some palm muting
e------------------------------------------------------------
b------------------------------------------------------------
g-----------------------------------5-5-5-5-5-5-5-5--7------- 
d-5-5-5-5-5-5-5-5--2-2-2-2-2-2-2-2--5-5-5-5-5-5-5-5--7--8-8--
a-5-5-5-5-5-5-5-5--2-2-2-2-2-2-2-2--3-3-3-3-3-3-3-3--5--8-8--
E-3-3-3-3-3-3-3-3--0-0-0-0-0-0-0-0----------------------6-6--

DANIELALEXANDERREID
Comments