Incubus - Like A Virgin Chords & Tabs

 

Like A Virgin Chords & Tabs

Incubus Chords & Tabs

Version: 1 Type: Chords 0 ratings
1 star 2 stars 3 stars 4 stars 5 stars
comments

Like A Virgin Chords

   
#----------------------------------PLEASE NOTE---------------------------------#
#This file is the author's own work and represents their interpretation of the #
#song. You may only use this file for private study, scholarship, or research. #
#------------------------------------------------------------------------------##

“A brand new incubus song, boys and girls.  Premiering here, today.” 
Tabber: Unknown
[ Tab from: http://www.guitartabs.cc/tabs/i/incubus/like_a_virgin_crd.html ]
Fig 1
e-------------------------------|
B-------------------------------|
G-------------------------------|
D-------------------------------|
A----0--------0--0--------------|
E-------2--0--------2--0--2-----|


Fig 2
e-------------------------------|
B-------------------------------|
G-------------------------------|
D-------------------------------|
A----2--0-----2--2--0-----0-----|
E----------2-----------2--------|


Fig 3

    BmF5  E
e----2-------2------0-----------|
B----3-------2------0-----------|
G----4-------2------1-----------|
D----4-------4------2-----------|
A----2-------4------2-----------|
E----x-------2------0-----------|
Comments