Incubus - Just A Phase Chords & Tabs

 

Just A Phase Chords & Tabs

Incubus Chords & Tabs

Version: 8 Type: Tab 0 ratings
1 star 2 stars 3 stars 4 stars 5 stars
comments

Just A Phase Tab

song:  Just a Phase
Band:  Incubus
Album: Morning View
Transcripted By:Shawn Tobin
email:shawn_tobin@hotmail.com
tuning:standard

starts off with turntable sample..

intro:
----------------------------------------0-0------------------------
----------------------------------------0-0------------------------
------------0-----6---4-------0---------4-4------------------------
--------0-5---0-----7---5-------0-----4-4-4------------------------
---0--4-------------------5/7-----0-2---2-2...etc------------------
-0-----------------------------------------------------------------


i wont go into the strumming here.. just the chords.
-0--|-0--|--------|--0--|--0--|
-0--|-0--|--------|--0--|--0--|
-9--|-4--|---->>--|--0--|--0--|
-6--|-4--|--ends--|--5--|--4--|
-7--|-2--|---like-|--5--|--4--|
----|----|--------|--3--|--2--|


verse:
this is the way mike plays it... (live)
-------0-------------------------0-----------0---------------------
-------0-------------------------0-----------0---------------------
-------9------------0------------9-----------6---------------------
-----6---6------- 4---4--------6---6-------6---6-------------------
---7-------7----5-------5----7-------7---4----------6--------------
-0------------3------------0---------------------4-----------------
[ Tab from: http://www.guitartabs.cc/tabs/i/incubus/just_a_phase_tab_ver_8.html ]
...but some may find this way easier for the first part. same thing. 
-------0------
-------0------
-----1---1----
---2-------2--
--------------
-0------------


"who are you..."
-------------------------------------------------------------------
-------------------------------------------------------------------
--------0----------------------------------------------------------
------6---6--------------------------------------------------------
----4-------4---4---4----------------------------------------------
--5-----------5---4------------------------------------------------

pre-chorus:
-------------------------------------------------------------------
-------------------------------------------------------------------
-------------------------------------------------------------------
-5-5-5---------2-2-2-2---------------------------------------------
-3-3-3-6-6-2-2-0-0-0-0----5-5-5------------------------------------
-3-3-3-4-4-0-0---------0--3-3-3------------------------------------

"it's just a phase and i'm waiting for it to be over..."
---------------0-0-0-0---------------------------------------------
---------------0-0-0-0---------------------------------------------
-5-5-5---------2-2-2-2---------------------------------------------
-5-5-5-6-6-2-2-2-2-2-2----5-5-5------------------------------------
-3-3-3-6-6-2-2-0-0-0-0----5-5-5------------------------------------
-3-3-3-4-4-0-0---------0--3-3-3------------------------------------

end chord
-0-------
-0-------
-2-------
-2-------
-0-------
---------

 comments? send to shawn_tobin@hotmail.com
Comments