Incubus - Just A Phase Chords & Tabs

 

Just A Phase Chords & Tabs

Incubus Chords & Tabs

Version: 6 Type: Tab 0 ratings
1 star 2 stars 3 stars 4 stars 5 stars
comments

Just A Phase Tab

The greatest song ever constructed!

Guitar Intro 1: 4X
e|-------------------------------------2--2-2-2-2-2--2-2-2|
B|----------------2--------------------3--3-3-3-3-3--3-3-3|
G|------------------2s4-0------0-------4--4-4-4-4-4--4-4-4|
D|-------0h4-5-0-----------0h2---0-----4--4-4-4-4-4--4-4-4|
A|-----4---------------------------0---2--2-2-2-2-2--2-2-2|
E|-0h5---------------------------------2--2-2-2-2-2--2-2-2|

Guitar Intro 2: 4X
e|--0--0-0-0-0-0--0-0-0--2--2-2-2-2-2--2-2-2-
B|--0--0-0-0-0-0--0-0-0--3--3-3-3-3-3--3-3-3-
G|--1--1-1-1-1-1--1-1-1--4--4-4-4-4-4--4-4-4-
D|--2--2-2-2-2-2--2-2-2--4--4-4-4-4-4--4-4-4-
A|--2--2-2-2-2-2--2-2-2--2--2-2-2-2-2--2-2-2-
E|--0--0-0-0-0-0--0-0-0--2--2-2-2-2-2--2-2-2-

--0--0-0-0-0--|
--0--0-0-0-0--|
--1--1-1-1-1--|
--2--2-2-2-2--|
--2--2-2-2-2--|
--0--0-0-0-0--|

Intro Variation:

           Oohhh.............
e|--3--3-3-3-3-3--3-3--2--2-2-2-2-2--2-2--0--0-0-0-0-0--0-0|
B|--3--3-3-3-3-3--3-3--3--3-3-3-3-3--3-3--0--0-0-0-0-0--0-0|
G|--4--4-4-4-4-4--4-4--4--4-4-4-4-4--4-4--1--1-1-1-1-1--1-1|
D|--5--5-5-5-5-5--5-5--4--4-4-4-4-4--4-4--2--2-2-2-2-2--2-2|
A|--5--5-5-5-5-5--5-5--2--2-2-2-2-2--2-2--2--2-2-2-2-2--2-2|
E|--3--3-3-3-3-3--3-3--2--2-2-2-2-2--2-2--0--0-0-0-0-0--0-0|

Verse 1:

e|------------------------------------------------------
B|-------0-------------------------0-----------5--------
G|-------1------------0------------1-----------6--------
D|-----2---2--------4-5-4--------2---2-------6----6-----
A|---2-------2----5-------5----2-------2---4----------6-
E|-0------------3------------0----------------------4---


------------------------------------------------------
-------0-------------------------0-----------5--------
-------1------------0------------1----------6---------
-----2---2--------4-5-4--------2---2-------6----6-----
---2-------2----5-------5----2-------2---4----------6-
-0------------3------------0----------------------4---

        Ahhhhhhhh...........ohhhhhhhhhhhhhhhhhhh......
------------------------------------------------------
-------0-------------------------0-----------5--------
-------1------------0------------1-----------6--------
-----2---2--------4-5-4--------2---2-------6----6-----
---2-------2----5-------5----2-------2---4----------6-
-0------------3------------0----------------------4---

   oooooooooooooo...........
------------------------------------------------------
-------0-------------------------0-----------5--------
-------1------------0------------1----------6---------
-----2---2--------4-5-4--------2---2-------6----6-----
---2-------2----5-------5----2-------2---4----------6-
-0------------3------------0----------------------4---

 I am bottled fizyy water, and you are shaking me up.
------------------------------------------------------
-------0-------------------------0-----------5--------
-------1------------0------------1-----------6--------
-----2---2--------4-5-4--------2---2-------6----6-----
---2-------2----5-------5----2-------2---4----------6-
-0------------3------------0----------------------4---

You are a fingernail running down the chalk board I thought I left in 3rd grade.
------------------------------------------------------
-------0-------------------------0-----------5--------
-------1------------0------------1----------6---------
-----2---2--------4-5-4--------2---2-------6----6-----
---2-------2----5-------5----2-------2---4----------6-
-0------------3------------0----------------------4---


No my only conselation is that this could not last forever
------------------------------------------------------
-------0-------------------------0-----------5--------
-------1------------0------------1-----------6--------
-----2---2--------4-5-4--------2---2-------6----6-----
---2-------2----5-------5----2-------2---4----------6-
-0------------3------------0----------------------4---


even though your singing & thinking how well youve got it made.
------------------------------------------------------
-------0-------------------------0-----------5--------
-------1------------0------------1-----------6--------
-----2---2--------4-5-4--------2---2-------6----6-----
---2-------2----5-------5----2-------2---4----------6-
-0------------3------------0----------------------4---

Prechorus:


        Who       are         you?      When     will
e|-------------------------------------------------------
B|-------------------------------------------------------
G|-------0--------------------0-------------------0------
D|-----6---6----------------6---6---------------6---6----
A|---4-------4----4---4---4-------4----4------4-------4--
E|-5------------5---4---5------------5---4---5----------5

[ Tab from: http://www.guitartabs.cc/tabs/i/incubus/just_a_phase_tab_ver_6.html ]
  you   be    through?
------------------------|
------------------------|
--------------0---------|
------------6---6-------|
--4---4---4-------4---3-|
----5---5-----------5---|


Chorus:


     Yeh   its   just   a   phase...
e|------------------------------------|
b|------------------------------------|
G|-5-5-5------------------------------|
D|-5-5-5-6-6-2-2--7--7-7-7-7---5-5-5-5|
A|-3-3-3-6-6-2-2--7--7-7-7-7---5-5-5-5|
E|-------4-4-0-0--5--5-5-5-5---3-3-3-3|



    it   will   be   over   soon.
e|------------------------------------|
b|------------------------------------|
G|-5-5-5------------------------------|
D|-5-5-5-6-6-2-2--7--7-7-7-7---5-5-5-5|
A|-3-3-3-6-6-2-2--7--7-7-7-7---5-5-5-5|
E|-------4-4-0-0--5--5-5-5-5---3-3-3-3|


     it's    just    a     phase
e|------------------------------------|
b|------------------------------------|
G|-5-5-5------------------------------|
D|-5-5-5-6-6-2-2--7--7-7-7-7---5-5-5-5|
A|-3-3-3-6-6-2-2--7--7-7-7-7---5-5-5-5|
E|-------4-4-0-0--5--5-5-5-5---3-3-3-3|



and i'm waiting for it to be over too.
e|------------------------------------|
b|------------------------------------|
G|-5-5-5------------------------------|
D|-5-5-5-6-6-2-2--7--7-7-7-7---5-5-5-5|
A|-3-3-3-6-6-2-2--7--7-7-7-7---5-5-5-5|
E|-------4-4-0-0--5--5-5-5-5---3-3-3-3|



Verse 1 Repeat:


call it womens intuition but I think im on to something here
e|------------------------------------------------------
B|-------0-------------------------0-----------5--------
G|-------1------------0------------1-----------6--------
D|-----2---2--------4-5-4--------2---2-------6----6-----
A|---2-------2----5-------5----2-------2---4----------6-
E|-0------------3------------0----------------------4---


Temporaryism has been the black plague and the Jesus of our age.
e|------------------------------------------------------
B|-------0-------------------------0-----------5--------
G|-------1------------0------------1-----------6--------
D|-----2---2--------4-5-4--------2---2-------6----6-----
A|---2-------2----5-------5----2-------2---4----------6-
E|-0------------3------------0----------------------4---




I know I must sound opinionated, maybe biased and quite
e|------------------------------------------------------
B|-------0-------------------------0-----------5--------
G|-------1------------0------------1-----------6--------
D|-----2---2--------4-5-4--------2---2-------6----6-----
A|---2-------2----5-------5----2-------2---4----------6-
E|-0------------3------------0----------------------4---




possibly jaded, but sooner that later they'll be throwing quarters at you on the stage
e|------------------------------------------------------
B|-------0-------------------------0-----------5--------
G|-------1------------0------------1-----------6--------
D|-----2---2--------4-5-4--------2---2-------6----6-----
A|---2-------2----5-------5----2-------2---4----------6-
E|-0------------3------------0----------------------4---



Prechorus:


        Who       are         you?      When     will
e|-------------------------------------------------------
B|-------------------------------------------------------
G|-------0--------------------0-------------------0------
D|-----6---6----------------6---6---------------6---6----
A|---4-------4----4---4---4-------4----4------4-------4--
E|-5------------5---4---5------------5---4---5----------5


  you   be    through?
------------------------|
------------------------|
--------------0---------|
------------6---6-------|
--4---4---4-------4---3-|
----5---5-----------5---|


Chorus:


    It's  just   a   phase
e|------------------------------------|
b|------------------------------------|
G|-5-5-5------------------------------|
D|-5-5-5-6-6-2-2--7--7-7-7-7---5-5-5-5|
A|-3-3-3-6-6-2-2--7--7-7-7-7---5-5-5-5|
E|-------4-4-0-0--5--5-5-5-5---3-3-3-3|


    it   will   be   over   soon
e|------------------------------------|
b|------------------------------------|
G|-5-5-5------------------------------|
D|-5-5-5-6-6-2-2--7--7-7-7-7---5-5-5-5|
A|-3-3-3-6-6-2-2--7--7-7-7-7---5-5-5-5|
E|-------4-4-0-0--5--5-5-5-5---3-3-3-3|



    It's  just   a   phase...
e|------------------------------------|
b|------------------------------------|
G|-5-5-5------------------------------|
D|-5-5-5-6-6-2-2--7--7-7-7-7---5-5-5-5|
A|-3-3-3-6-6-2-2--7--7-7-7-7---5-5-5-5|
E|-------4-4-0-0--5--5-5-5-5---3-3-3-3|



 and i'm waiting for it to be over too.
e|------------------------------------|
b|------------------------------------|
G|-5-5-5------------------------------|
D|-5-5-5-6-6-2-2--7--7-7-7-7---5-5-5-5|
A|-3-3-3-6-6-2-2--7--7-7-7-7---5-5-5-5|
E|-------4-4-0-0--5--5-5-5-5---3-3-3-3|


Chorus repeat:
Any questions or comments? email:aoshea9@hotmail.com
Comments