Incubus - Just A Phase Chords & Tabs

 

Just A Phase Chords & Tabs

Incubus Chords & Tabs

Version: 3 Type: Tab 0 ratings
1 star 2 stars 3 stars 4 stars 5 stars
comments

Just A Phase Tab

#----------------------------------PLEASE NOTE--------------------------------#
#This file is the author's own work and represents their interpretation of the#
#song. You may only use this file for private study, scholarship, or research.#
#-----------------------------------------------------------------------------#
#-- File created with Instab - http://www.pconline.com/~smcarey/instab.html --#
#-----------------------------------------------------------------------------#

Author/Artist: Incubus
Title: Just a Phase
Album: Morning View
Transcribed by: ShanK....
Email: rdman48@yahoo.com

pretty cool song...pretty easy after a while...this IS the correct version of it...its perfectly right all the way thru 

----------------------------------------------0-----------0-----2--------------
----------------------------------------------0-----------0-----3--------------
-----------0---6---4---------5----------------11----x4----9-----4----x2--------
-------0-5---5---7---5---5h7---5--------------0-----------9-----4--------------
---0-4---------------------------0-------9----9-----------7-----2--------------
-0------------------------------------7-----7-7--------------------------------
                                                                              

-------------------------------------------0------0---2------------------------
-------------------------------------------0------0---3------------------------
-----------0---6---4--------5--------------11--x4-9---4--x2--------------------
-------0-5---5---7---5--5h7---5------------0------9---4----------5---4---------
---0-4--------------------------0-----9----9------7---2----------5---4---------
-0---------------------------------7----7--7---------------------3---2---------
                                                                              
[ Tab from: http://www.guitartabs.cc/tabs/i/incubus/just_a_phase_tab_ver_3.html ]
---------0-------------------------------0------------0-----------------------
---------0-------------------------------0------------5-----------------------
---------6---------------0---------------6------------6-----------------------
-------6---6-----------4---4-----------6---6--------6----6--------------------
-----7-------7-------5-------5-------7-------7----4----------6----------------
---0---------------3---------------0-----------------------4------------------
 after intro/verse                                                            

------------------------------------------------------------------------------
------------------------------------------------------------------------------
-------0----------------------------------------------------------------------
-----6---6-------------x4-----------------------------------------------------
---7-------7---7---7----------------------------------------------------------
-5-----------5---4------------------------------------------------------------
 whooooo are you...                                                           

------------------------------------------------------------------------------
------------------------------------------------------------------------------
--5---------------------------------------------------------------------------
--5---6---2---7---5-----------------------------------------------------------
--3---6---2---7---5-----------------------------------------------------------
------4---0---5---3-----------------------------------------------------------
                       (palm mute 1st...get louder and unmute..)             

------------------------------------------------------------------------------
------------------------------------------------------------------------------
--5---------------------------------------------------------------------------
--5--6---2---7---5-----x10----------------------------------------------------
--3--6---2---7---5------------------------------------------------------------
-----4---0---5---3------------------------------------------------------------
                                                                         (use         

------------------------------------------------------------------------------
------------------------------------------------------------------------------
------------------------------------------------------------------------------
------------------------------------------------------------------------------
------------------------------------------------------------------------------
------------------------------------------------------------------------------
 distortion) play till the end                                                
Comments