Incubus - Just A Phase Chords & Tabs

 

Just A Phase Chords & Tabs

Incubus Chords & Tabs

Version: 2 Type: Tab 0 ratings
1 star 2 stars 3 stars 4 stars 5 stars
comments

Just A Phase Tab

Incubus
Just A Phase
Morning View

Transcribed by: Brendan O'Mara

Techniques
----------
h - hammer on
 - repeat what is above these arrows, and how ever many times specified.
---^ - rake
---x - palm muted

---------

Sound Effects... Come in 4th time.

Intro

e|------------------------------------------0----0---0---0--0--0--|
B|------------------------------------------0----0---0---0--0--0--|
G|-----------0---6---4--------0-------------11---11--11--11-11-11-|
D|-------0-5---0---7---5-------0------------0----0---0---0--0--0--|
A|-----4-----------------5h7----0------9----9----9---9---9--9--9--|
E|-0-5-------------------------------7------7----7---7---7--7--7--|
3x


   On the fourth time play this, and repeat what's in the bars:


e|----------------------------------------|-0----0---0---0--0--0--|
B|----------------------------------------|-0----0---0---0--0--0--|
G|-----------0---6---4--------0-----------|-11---11--11--11-11-11-|
D|-------0-5---0---7---5-------0----------|-0----0---0---0--0--0--|
A|-----4-----------------5h7----0------9--|-9----9---9---9--9--9--|
E|-0-5-------------------------------7----|-7----7---7---7--7--7--|
					    2x



e|--0-0-0-0--0-0-0-0-0---0------------0---------------------------|
B|--0-0-0-0--0-0-0-0-0---0------------0---------------------------|
G|--4-4-4-4--3-3-3-3-3---3------------6----------------0----------|
D|--5-5-5-5--4-4-4-4-4---4----------6---6------------4---4--------|
A|--5-5-5-5--4-4-4-4-4---4-/-7----7-------7-/-5----5-------5-/-7--|
E|--3-3-3-3--2-2-2-2-2---2------0----------------3----------------|
                               2x
[ Tab from: http://www.guitartabs.cc/tabs/i/incubus/just_a_phase_tab_ver_2.html ]
                                                      --^
e|----------0--------------------------------0--------------------|
B|----------0--------------------------------0---------5----------|
G|----------6---------------0----------------6---------6----------|
D|--------6---6-----------4---4------------6---6-------6-6--------|
A|-/-7--7------7-/-5----5-------5-/-7----7-------0---4-4----6-/-7-|
E|--------------------3----------------0------------------4-------|


e|----------------------------------------------------------------|
B|----------------------------------------------------------------|
G|-----0------------0------------0------------0-------------------|
D|----6-6----------6-6----------6-6----------6-6------------------|
A|---4---4--4--4--4---4--4--4--4---4--4--4--4---4--4--4-----------|
E|--5------5--4--5------5--4--5------5--4--5------5--4------------|


  |----------------------------------------x
e|----------------------------------------------------------------|
B|----------------------------------------------------------------|
G|----------------------------------------------------------------|
D|--------------------------------2-2--0-0---5-5-5-5--------------|
A|-10-10-10-10--6-6-6--2-2-2-2-2--0-0--x-x---3-3-3-3--6-6-6-------|
E|-8--8--8--8---4-4-4--0-0-0-0-0-------3-3------------4-4-4-------|


e|----------------------------------------------------------------|
B|----------------------------------------------------------------|
G|----------------------------------------------------------------|
D|------------2-2--0-0--------------------------------------------|
A|-2-2-2-2-2--0-0--x-x--------------------------------------------|
E|-0-0-0-0-0-------3-3--------------------------------------------|


This is basically the entire song. Listen to the CD for rhythm and
repeats.
Comments