Incubus - Just A Phase Chords & Tabs

 

Just A Phase Chords & Tabs

Incubus Chords & Tabs

Version: 10 Type: Tab 0 ratings
1 star 2 stars 3 stars 4 stars 5 stars
comments

Just A Phase Tab

##################################################################################
# This file is the author's own work and represents their interpretation of the  #
# song. You may only use this file for private study, scholarship, or research.  #
##################################################################################
Incubus - Just A Phase

Guitar
PART 1
Intro play 4 times
e|---------------------------------------0---------------|
B|---------------------------------------0---------------|
G|-----------0---6---4-------0-----------11--------------|
D|-------0-5---0---7---5-------0---------0-~~strum this chord for a lil bit~~
A|-----4-----------------5-7-----0---9---9---------------|
E|-0-5-----------------------------7---7-7---------------|

after the fouth time...
e|--0-------------0-------------0------------------------|
B|--0-------------0-------------0------------------------|
G|--1-------------11------------1------------------------|
D|--2--~~Strum~~--0--~~Strum~~--2~~Strum~~---------------|
A|--2-------------9-------------2------------------------|
E|--0-------------7-------------0------------------------|

_________________________________________________________________________________________
PART 2

Play those two lines twice, then after the second time on the second line after
the second chord it goes to....
[ Tab from: http://www.guitartabs.cc/tabs/i/incubus/just_a_phase_tab_ver_10.html ]
e|-3----------2-----------------------------------------|
B|-3----------2-----------------------------------------|
G|-4----------3-----------------------------------------|
D|-5~~Strum~~-4~~Strum~~--------------------------------|
A|-5----------4-----------------------------------------|
E|-3----------2-----------------------------------------|
Reapeat This a Few Times until it changes to....
e|-------0-----------------------0----------0-----------|
B|-------0-----------------------0----------5-----------|
G|-------6-----------0-----------6----------6-----------|
D|-----6---6-------4---4-------6---6------6-------------|
A|---7-------7---5-------5---7-------7--4-------6-------|
E|-0-----------3-----------0------------------4---------|
this....reapeat 4 times i think
e|------------------------------------------------------|
B|------------------------------------------------------|
G|--------0---------------------------------------------|
D|------6---6-------------------------------------------|
A|----4-------4---4---4---------------------------------|
E|--5-----------5---4-----------------------------------|
_________________________________________________________________________________________
This is after the four times
play it progressivly louder and with more distortion
after four times of that play part 2 over again

PART 3

e|------------------------------------------------------|
B|------------------------------------------------------|
G|-555-------22-----------------------------------------|
D|-555-66-22-22-555555----------------------------------|
A|-333-66-22-00-555555----------------------------------|
E|-----44-00----333333----------------------------------|

After you go through part 2 again and the next time you play part 3 
it still gets progressively louder and more distorted, but faster, and
that plays through the rest of the song and it ends on the A Chord.
If you have any questions or corrections, tell me at BooherR7@wmconnect.com
Comments