Incubus - Idiot Box Chords & Tabs

 

Idiot Box Chords & Tabs

Incubus Chords & Tabs

Version: 1 Type: Bass Tab 0 ratings
1 star 2 stars 3 stars 4 stars 5 stars
comments

Idiot Box Bass Tab

   
Idiot Box		Incubus
S.C.I.E.N.C.E
Tabbed by Ryan Landis

I haven't seen an accurate version of Idiot Box tabbed out anywhere before, 
so I'm taking it upon myself to make one. I've only included the main part 
of the song... the fills are extraordinarily easy... they're just repeated 
notes.

Chorus

G|------------------------------------------
D|------------------------------------------
A|-5-5-5-6-3-5-5-5-6-3-0-0-0-0---1-1-1-1-1-1
E|-----------------------------3------------

Verse
[ Tab from: http://www.guitartabs.cc/tabs/i/incubus/idiot_box_btab.html ]
G|-----------5--
D|-00---67-7---6
A|--------------
E|--------------

Every 4th time on verse parts....

G|----------14-14----
D|-00---5/13-----13--
A|-----------------12
E|-------------------

Bridge

G|----12--------------------------------
D|-11----11---------------------5-6-5---
A|----------10\-----------4---4---------
E|----------------------3---3-----------

Every 4th time on bridge parts

G|----12--------------------------6-------
D|-11----11---------------------5---5-----
A|----------10/-----------4---4-------4---
E|----------------------3---3-------------

comments? email me at staind667@hotmail.com

Comments