Incubus - I Wish You Were Here Chords & Tabs

 

I Wish You Were Here Chords & Tabs

Incubus Chords & Tabs

Version: 6 Type: Tab 0 ratings
1 star 2 stars 3 stars 4 stars 5 stars
comments

I Wish You Were Here Tab

#----------------------------------PLEASE NOTE--------------------------------#
#This file is the author's own work and represents their interpretation of the#
#song. You may only use this file for private study, scholarship, or research.#
#-----------------------------------------------------------------------------#
#-- File created with Instab - http://www.pconline.com/~smcarey/instab.html --#
#-----------------------------------------------------------------------------#

Author/Artist: Incubus
Title: I Wish You Were Here
Album: Morning View
Transcribed by: st2012
Email: st2012@hotmail.com
[ Tab from: http://www.guitartabs.cc/tabs/i/incubus/i_wish_you_were_here_tab_ver_6.html ]
---------------------------------|--------------------------------------------|
---------------------------------|--------------------------------------------|
-4--4-4--4-4-4---4--4-4--7-------|-4--4-4--4-4-4---4--4-4--7-7---9-9/11-11----|
-2--2-2--2-2-2---4--4-4--7---2-2-|-2--2-2--2-2-2---4--4-4--7-7----------------|
-0--0-0--2-2-2---2--2-2--5---2-2-|-0--0-0--2-2-2---2--2-2--5-5---7-7/9--9-----|
---------0-0-0---------------0-0-|---------0-0-0------------------------------|
 w/distortion: (the timing isnt exactly right but its not hard to figure out)

------------------------------------|-----------------------------------------|
------------------------------------|-----------------------------------------|
-4--4-4--4-4-4-4---4-4-4--7-7-------|-----------------------------------------|
-2--2-2--2-2-2-2---4-4-4--7-7--2-2-2|-----------------------------------------|
-0--0-0--2-2-2-2---2-2-2--5-5--2-2-2|-----------------------------------------|
---------0-0-0-0---------------0-0-0|-----------------------------------------|
  verse: w/delay

------------------------------------|-----------------------------------------|
---------------------------9----10--|-----------------------------------------|
-9---9-9h11--------------9---9--9---|-----------------------------------------|
-9----------11------9h11------------|-----------------------------------------|
--------------------------------12--|-----------------------------------------|
------------------------------------|-----------------------------------------|
Comments