Incubus - I Miss You Chords & Tabs

 

I Miss You Chords & Tabs

Incubus Chords & Tabs

Version: 5 Type: Tab 0 ratings
1 star 2 stars 3 stars 4 stars 5 stars
comments

I Miss You Tab

Artist: Incubus
Song: I Miss You (acoustic and electric)
Album: Make Yourself

Iíve seen a bunch of tabs for this song and the chorus is always incredibly wrong. There are two guitars playing through this song but Iíll tab it out for one guitar. This is straight from the Make Yourself tab book;I can guarantee itís right. The electric version is played with a clean tone and chorus and flange effects.

~ means let ring
*7 * indicates natural harmonics

Intro, Main riff

E---------------------------------------------------------- B----------------------------------------------------------
G---------------------------------------------------------  D---------0~---------------------0~-----0~---*5*-----
A-----4~-----4~------4~-------4~-----4~----------------
Dó0~-------------0~------5~-------------------------------  

Second time, exclude harmonic on 5 and end on

E----------------
B-----*7*--------
G--*7*---*7*-----
D----------------
A----------------
D----------------   

Chorus
[ Tab from: http://www.guitartabs.cc/tabs/i/incubus/i_miss_you_tab_ver_5.html ]
E--------------------------------------------0-0-0-0-----
B--------------------------------------------5-5-5-5-----
G--------0-----------------0-----------------7-7-7-7-----
D-----4----4----4--------5---5---------4~----4-4-4-4-----
A--2----------2--------0--------0------0~----------------
D--------------------5--------------0--0~----------------





E-----------------------------------------------------------
B---------------------------------------------15-15-15-15---
G--------0-----------------0------------------x--x--x--x----
D-----4----4-----4-------5---5---------4~-----12-12-12-12---
A--2----------2--------0--------0------0~-------------------
D--------------------5--------------0--0~-------------------

E-----------------------------------------------------------
B-----------------------------------------------------------
G-------0---------------0----------------4--4-4-4-4-0-0-0-0
D----4----4----4------5---5-------4-4-4--4--4-4-4-4-5-5-5-4
A--2--------2------0--------0-----0-0-0--2--2-2-2-2-5-5-5-5
D----------------5----------------0-0-0--4--4-4-4-4-5-5-5-5

E--------------------------------
B--------------------------------
G-0-0-0-0-0-0-0-0-0--------------
D-4-4-4-5-5-5-4-4-4--------------
A-5-5-5-5-5-5-5-5-5--------------
E-5-5-5-5-5-5-5-5-5--------------

Comments