Incubus - I Miss You Chords & Tabs

 

I Miss You Chords & Tabs

Incubus Chords & Tabs

Version: 3 Type: Tab 0 ratings
1 star 2 stars 3 stars 4 stars 5 stars
comments

I Miss You Tab

#----------------------------------PLEASE NOTE---------------------------------#
#This file is the author's own work and represents their interpretation of the #
#song. You may only use this file for private study, scholarship, or research. #
#------------------------------------------------------------------------------##
Incubus
I Miss You


e] ------------------------------------------------------------------------x----x--x--x---x---x---x--x---x---]
b] ------------------------------------------------------------------------x----x--x--x---x---x---x--x---x---]
g] ----------4------------------------------------------------4--4--4----x----x--x--x---x---x---x--x---x---]
d] -----4--------4-------------5--5--5--5---0--0--0--0---4--4--4----0----4--4--4---5---4--4--4---5--]
a] -2-----------------2---0----5--5--5--5---0--0--0--0---2--2--2----0----5--5--5---5---5--5--5---5--]
d] -----------------------------5--5--5--5---0--0--0--0----------------0----5--5--5---5---5--5--5---5--]


Play this whole thing twice for the whole song, but at end of song play this little piece to finish it...

e] ------------------5---]
b] --------------0-------]
g] -----------0----------]
d] --------0-------------] 
a] ----4-----------------]

#----------------------------------PLEASE NOTE---------------------------------#
#This file is the author's own work and represents their interpretation of the #
#song. You may only use this file for private study, scholarship, or research. #
#------------------------------------------------------------------------------#
Miss You (Acoustic)
By Incubus

Tabbed by Rajeev Jacob

This is the first time I made tabs for a song but I think this is right.  

This song is done in Drop D
(Dadgbe)

The begining goes like this...
(* stands for play harmonic instead of note)
[ Tab from: http://www.guitartabs.cc/tabs/i/incubus/i_miss_you_tab_ver_3.html ]
e] --------------------------------]
b] --------------------------------]
g] --------------------------------]
d] -------0---------------0----0*--]
a] ----4----4---4-----4----4-------]
d] -0---------0-----5--------------]
Play this for the intro and the verses.

The chorus took me awhile to figure out but it goes something like this...

e]------------------------------------------------------------------]
b]---------------------------------------------------5--5--5--5-----]
g]---------4-----------------------------------------0--0--0--0-----]
d]-----4------4-----------5--5--5--5---0--0------4--4--4--4---------]
a]-2--------------2---0---5--5--5--5---0--0-------------------------]
d]-------------------------5--5--5--5---0--0------------------------]
 1.You do something to me___________________


e] -----------------------------------------------------------------]
b] ---------------------------------------------------15--15--15----]
g] ---------4----------------------------------------14--14--14-----]
d] -----4------4------------5--5--5--5---0--0-----------------------]
a] -2--------------2---0----5--5--5--5---0--0-----------------------]
d] --------------------------5--5--5--5---0--0----------------------]


e] ------------------------------------------------------------------------x----x--x--x---x---x---x--x---x---]
b] ------------------------------------------------------------------------x----x--x--x---x---x---x--x---x---]
g] ----------4------------------------------------------------4--4--4----x----x--x--x---x---x---x--x---x---]
d] -----4--------4-------------5--5--5--5---0--0--0--0---4--4--4----0----4--4--4---5---4--4--4---5--]
a] -2-----------------2---0----5--5--5--5---0--0--0--0---2--2--2----0----5--5--5---5---5--5--5---5--]
d] -----------------------------5--5--5--5---0--0--0--0----------------0----5--5--5---5---5--5--5---5--]


P

If you have any questions or comments e-mail me: shoughtyman@yahoo.com
Comments