Incubus - I Miss You Chords & Tabs

 

I Miss You Chords & Tabs

Incubus Chords & Tabs

Version: 2 Type: Tab 0 ratings
1 star 2 stars 3 stars 4 stars 5 stars
comments

I Miss You Tab

   
BAND: Incubus
SONG: I Miss You
TABLATURE: Guitar
TABBED BY: Dnnythms - http://www.geocities.com/allkimsmith
----------------------------------------------------------------

Intro (Verse is the same but palm muted except last note): 
e]--------------------------] 
b]--------------------------] 
g]------------------------0-] 
d]-----0---0--------0---0---] 
a]---4---4---4----4---4-----] 
d]-0------------5-----------] 
[ Tab from: http://www.guitartabs.cc/tabs/i/incubus/i_miss_you_tab_ver_2.html ]
Chorus:(the notes are there just get the rythm yourslef) 
e]---------------------------------] 
b]---------------------------------] 
g]-4-4-4-4-------------------------] 
d]-4-4-4-4-5-5-5-5-0-0-0-0-0-0-0-0-] 
a]-2-2-2-2-5-5-5-5-0-0-0-0-0-0-0-0-] 
d]---------5-5-5-5-0-0-0-0-0-0-0-0-] 
I know I\'ll see you again 
Whether far or soon. 

e]-----------------------------------------------------------------] 
b]-----------------------------------------------------------------] 
g]-4-4-4-4---------7-7-7-7-4-4-4-4---------------------------------] 
d]-4-4-4-4-5-5-5-5-7-7-7-7-4-4-4-4-5-5-5-5-5-5-5-5-5-5-5-5-5-5-5-5-] 
a]-2-2-2-2-5-5-5-5-5-5-5-5-2-2-2-2-5-5-5-5-5-5-5-5-5-5-5-5-5-5-5-5-] 
d]---------5-5-5-5-----------------5-5-5-5-5-5-5-5-5-5-5-5-5-5-5-5-] 

But I need you to know      that I care          and I miss you 
Comments