Incubus - I Miss You Chords & Tabs

 

I Miss You Chords & Tabs

Incubus Chords & Tabs

Version: 1 Type: Tab 0 ratings
1 star 2 stars 3 stars 4 stars 5 stars
comments

I Miss You Tab

Drop D Tuning
OK, here's my first tab...i hope its right! Any questions, email me!
Peace, 
Chris
Philippians 1:29


Intro and Verse 
e]--------------------------] 
b]--------------------------] 
g]------------------------7*] 
d]-----0------------0---0---] 
a]---4---4---4----4---4-----] 
d]-0-------0----5-----------] 

Chorus:
e]---------------------------------] 
b]-------0-----------00-0--0--5-5-5] 
g]-----4---4-------0--0-0--0--0-0-0] 
d]---0-------0---0----0-0--4--4-4-4]
a]-2------------------x-x--5--5-5-5] 
d]-------------5------5-5----------] 
1You do something to me
2I know I'll see you again 
[ Tab from: http://www.guitartabs.cc/tabs/i/incubus/i_miss_you_tab.html ]
e]----------------------------10-10-10-] 
b]-------0-----------00-0--0-----------] 
g]-----4---4-------0--0-0--0--7-----7--] 
d]---0-------0---0----0-0--4-----7-----]
a]-2------------------x-x--5-----------] 
d]-------------5------5-5--------------] 
1That I can’t explain
2Whether far or soon. 

e]-------------------------------------] 
b]-------0-----------00-0--0--0--0--0--] 
g]-----4---4-------0--0-0--0--4--0--0--] 
d]---0-------0---0----0-0--4--0--5--4--]
a]-2------------------x-x--5--2--x--x--] 
d]-------------5------5-5--------5--5--]back to main 
1Would I be out of line    If I said   I miss you
2But I need you to know    That I care I miss you 
ENJOI!         
Comments