Incubus - I Miss You Acoustic Chords & Tabs

 

I Miss You Acoustic Chords & Tabs

Incubus Chords & Tabs

Version: 4 Type: Tab 0 ratings
1 star 2 stars 3 stars 4 stars 5 stars
comments

I Miss You Acoustic Tab

Band: Incubus
Song: I Miss You (Acoustic)
Tuning: Drop D - DADGBE

Intro (x4)
e|-------------------------|
B|-------------------------|
G|----------------------*7-| <-- * indicates a harmonic note
D|-----0-----------0---0---|
A|---4---4---4---4---4-----|
D|-0-------0---5-----------|

Verse (x8)
e|-------------------------|
B|-------------------------|
G|----------------------*7-| <-- do not play note 8th time
D|-----0-----------0---0---|
A|---4---4---4---4---4-----|
D|-0-------0---5-----------|

Chorus (x1)
e|-------------|-------------|-------0-0---|-0-----0-0-0-|
B|-----0-------|-------------|-------5-5---|-5-----5-5-5-|
G|-------0-----|-------0-----|-------0-0---|-0-----0-0-0-|
D|---4-----4---|-----5-5-5-5-|-4-----4-4---|-4-----4-4-4-|
A|-2---------0-|---5---5-5-5-|-0-----5-5---|-5-----5-5-5-|
D|-------------|-5-------5-5-|-0-----------|-------------|

e|-------------|-------------|--------10---|10----1010---|
B|-----0-------|-------------|---------x---|-x-----x-x---|
G|-------0-----|-------0-----|---------7---|-7-----7-7---|
D|---4-----4---|-----5-5-5-5-|-4-------0---|-0-----0-0---|
A|-2---------0-|---5---5-5-5-|-0-----------|-------------|
D|-------------|-5-------5-5-|-0-----------|-------------|
[ Tab from: http://www.guitartabs.cc/tabs/i/incubus/i_miss_you_acoustic_tab_ver_4.html ]
e|-------------|-------------|-------------|-------------|
B|-----0-------|-------------|-------------|-------------|
G|-------0-----|-------0-----|-------------|-4-----4-4-4-|
D|---4-----4---|-----5-5-5-5-|-4------4-4--|-4-----4-4-4-|
A|-2---------0-|---5---5-5-5-|-0------0-0--|-2-----2-2-2-|
D|-------------|-5-------5-5-|-0------0-0--|-------------|

e|-------------|-------------|-------------|-------------|
B|-------------|-------------|-------------|-------------|
G|-------------|-------------|-------------|-------------|
D|-4-----4-4-5-|-5-----5-5-4-|-4-----4-4-4-|-4-----4-4-4-|
A|-5-----5-5-5-|-5-----5-5-5-|-5-----5-5-5-|-5-----5-5-5-|
D|-5-----5-5-5-|-5-----5-5-5-|-5-----5-5-5-|-5-----5-5-5-|

Verse (x16)
e|-------------------------|
B|-------------------------|
G|----------------------*7-| <-- do not play note 16th time
D|-----0-----------0---0---|
A|---4---4---4---4---4-----|
D|-0-------0---5-----------|

Chorus (x1)

Outro (x4)                  (play after 4th time)
e|-------------------------|------5------|
B|-------------------------|-----3-------|
G|----------------------*7-|----2--------|
D|-----0-----------0---0---|---0---------|
A|---4---4---4---4---4-----|--0----------|
D|-0-------0---5-----------|-0-----------|

Other notes:
In the chorus, you can see:

e|-------------|-------------|--------10---|10----1010---|

These are 10's, there are no 1's in this song.

Thanks

rowelly
Comments