Incubus - Here In My Room Chords & Tabs

 

Here In My Room Chords & Tabs

Incubus Chords & Tabs

Version: 1 Type: Tab 0 ratings
1 star 2 stars 3 stars 4 stars 5 stars
comments

Here In My Room Tab

here in my room						tab by max

first impressions of this brilliant song, you might think there's no guitar,
but if you listen carefully you'll here it. it starts after the first bar, copying the
tune of the piano. however, it's not used very much throughout the song.

verse/chorus

-------------3-------
---------1---4-------
----0-1-0----5-------
---2-2-2-----6-------
--3------------------
---------------------
[ Tab from: http://www.guitartabs.cc/tabs/i/incubus/here_in_my_room_tab.html ]
'and i wouldn't change a thing...'

-------------9-------
----------9----------
-------6-8-10--------
----1-3--------------
---4-----------------
--2------------------

solo bit (each note is picked repeatedly, extremely fast)

------------------------16-15-----
--14-13-11-13------13-------------
-------------12-10---15-----------
----------------------------------
----------------------------------
----------------------------------
Comments