Incubus - Here In My Room Chords & Tabs

 

Here In My Room Chords & Tabs

Incubus Chords & Tabs

Version: 1 Type: Bass Tab 0 ratings
1 star 2 stars 3 stars 4 stars 5 stars
comments

Here In My Room Bass Tab

Band- Incubus
Song- Here In My Room



Verse (No bass during first verse):

G|-----------------------------------------------|
D|-----------------------------------------------|
A|-----------------------------------------------|
E|-8--8-11--4-44--11-8-88-11-4-44-6-8-88-11-4-44-| <-- eleven, not one one!


Pre-Chorus:
[ Tab from: http://www.guitartabs.cc/tabs/i/incubus/here_in_my_room_btab.html ]
G|-----------------------------|
D|-----------------------------|
A|-----------------------------|
E|-2--22--2--22--2--22--2--22--|


Chorus Ver. 1:

G|-------------------------------|
D|---------------------------3-5-|
A|-3--6------------------3-6-----|
E|-------4--4-1---1-4--6---------|


Chorus Ver. 2:

G|--------------------------------|
D|----------------------------3-5-|
A|-3-33-------------------3-6-----|
E|-------4-44--1-11--4--6---------|
Comments