Incubus - Have You Ever Chords & Tabs

 

Have You Ever Chords & Tabs

Incubus Chords & Tabs

Version: 2 Type: Tab 0 ratings
1 star 2 stars 3 stars 4 stars 5 stars
comments

Have You Ever Tab

Heyas all  :)

Fun song here, and pretty easy to figure out.  The chords are the exact same as 
Touch Peel and Stand, or Spoonman, just a different progression, which is always groovy.

So, lets drop our guitars to D. 

INTRO (and other parts of the song):

e|--4/5--4/5--4/5--0--0-0--3--3--8------------------------|
B|--4/5--4/5--4/5--0--0-0--3--3--8------------------------|
G|--4/5--4/5--4/5--0--0-0--3--3--8------------------------|
d|--4/5--4/5--4/5--0--0-0--3--3--8------------------------|
A|--4/5--4/5--4/5--0--0-0--3--3--8------------------------|
D|--4/5--4/5--4/5--0--0-0--3--3--8------------------------|

VERSES:
  *note* uh, just improv here  ;P  tho i think this jist i have here's pretty accurate.
[ Tab from: http://www.guitartabs.cc/tabs/i/incubus/have_you_ever_tab_ver_2.html ]
e|--------------------------------------------------------|
B|--------------------------------------------------------|
G|--------------------------------------------------------|
d|--------------------------------------------------------|
A|------------------------------------1-1-1-1-1-----------|
D|-1-1-1-0-1---5-7-3-3-5---1-1-1-0-1----------------------|

CHORUS:
  *I'll just list where the chords are.  you can figure out the strumming.  No worries, 
it's not hard, you just gotta be fast.

e|--0/3/0---10--12--10--8--5--3--3------------------------|
B|--0/3/0---10--12--10--8--5--3--3------------------------|
G|--0/3/0---10--12--10--8--5--3--3------------------------|
d|--0/3/0---10--12--10--8--5--3--3------------------------|
A|--0/3/0---10--12--10--8--5--3--3------------------------|
D|--0/3/0---10--12--10--8--5--3--X------------------------|


Bah, well, hope that helps.  Enjoy  :)

Homer.
Comments