Incubus - Have You Ever Chords & Tabs

 

Have You Ever Chords & Tabs

Incubus Chords & Tabs

Version: 1 Type: Bass Tab 0 ratings
1 star 2 stars 3 stars 4 stars 5 stars
comments

Have You Ever Bass Tab

   
Band:  Incubus
Song:  Have You Ever
Tabber:  Jimmy Fats 69
Info:  This is basically the the guitar tab w/o the chords.  I also
added the bridge and various other things.  Please Comment
Tuning:  D,A,D,G

Intro: 
G:----------------------------- 
D:----------------------------- 
A:----------------------------- 
D:--00-5-00-5-00-55-0-0-3-/8-8-- 

Verse 1: 
G:-------------------------------------------- 
D:-------------------------------------------- 
A:-------------------------------------------- 
D:--R-E-S-T---55-77-33-55-1111-0-1-888888888-- 

G:----------------------------------------------- 
D:----------------------------------------------- 
A:----------------------------------------6p5h6-- 
D:--111-0-1---55-77-33-55-1111-0-1-888888-------- 

G:-------------------------------------------- 
D:-------------------------------------------- 
A:-------------------------------------------- 
D:--111-0-1---55-77-33-55-1111-0-1-888888888-- 

G:-------------------------------------------------- 
D:-------------------------------------------------- 
A:------------------------------------------11111111 
D:--111-0-1---55-77-33-55-1111-0-1-33333333--------- 

Chorus: x2
G:--------------------------------------- 
D:--------------------------------------- 
A:--------33---5-5555-55-------------33-- 
D:--0h3p0----0------------88-55-3-33----- 
                                           
G:--------------------------------------- 
D:--------------------------------------- 
A:--------33---5-5555-55--55---------33-- 
D:--0h3p0----0---------------88-3-33----- 
[ Tab from: http://www.guitartabs.cc/tabs/i/incubus/have_you_ever_btab.html ]
Preverse x1
G:----------------------------- 
D:----------------------------- 
A:----------------------------- 
D:--00-5-00-5-00-55-0-0-3-/8-8-
Verse 2:
G:-------------------------------------------- 
D:-------------------------------------------- 
A:-------------------------------------------- 
D:--111-0-1---55-77-33-55-1111-0-1-888888888-- 

G:----------------------------------------------- 
D:----------------------------------------------- 
A:----------------------------------------6p5h6-- 
D:--111-0-1---55-77-33-55-1111-0-1-888888-------- 

G:-------------------------------------------- 
D:-------------------------------------------- 
A:-------------------------------------------- 
D:--111-0-1---55-77-33-55-1111-0-1-888888888-- 

G:-------------------------------------------------- 
D:-------------------------------------------------- 
A:------------------------------------------11111111 
D:--111-0-1---55-77-33-55-1111-0-1-33333333--------- 

Chorus: x2
G:--------------------------------------- 
D:--------------------------------------- 
A:--------33---5-5555-55-------------33-- 
D:--0h3p0----0------------88-55-3-33----- 
                                           
G:--------------------------------------- 
D:--------------------------------------- 
A:--------33---5-5555-55--55---------33-- 
D:--0h3p0----0---------------88-3-33----- 

Bridge x3 
G:------------ 
D:----7------- 
A:8-------5--- 
D:------------ 

G:----------------
D:----8-----------
A:8-------10--(10)<-- add last time 
D:----------------

Chorus: x2
G:--------------------------------------- 
D:--------------------------------------- 
A:--------33---5-5555-55-------------33-- 
D:--0h3p0----0------------88-55-3-33----- 
                                           
G:--------------------------------------- 
D:--------------------------------------- 
A:--------33---5-5555-55--55---------33-- 
D:--0h3p0----0---------------88-3-33----- 

Outro: x4
G:----------------------------- 
D:----------------------------- 
A:----------------------------- 
D:--00-5-00-5-00-55-0-0-3-/8-8-Comments, Questions:  MADdog9997@aol.com
Comments