Incubus - Glass Chords & Tabs

 

Glass Chords & Tabs

Incubus Chords & Tabs

Version: 3 Type: Tab 0 ratings
1 star 2 stars 3 stars 4 stars 5 stars
comments

Glass Tab

   
Artist: Incubus              . - Palm Mute
Song: Glass                  * - Harmonics
Album: S.C.I.E.N.C.E.        x - Muted
Tabber: Ghost


Intro x6 (Ring Mod)(slight distortion?)
e------------------------------------------------------------------------------
B------------------------------------------------------------------------------
G------------------------------------------------------------------------------
D---------------------------------------------------------------------12-------
A---11/12-11-0-11-0--11/12-11-0-11-0--11/12-11-0-11-0--11/12-11-0-11-0---------
E------------------------------------------------------------------------------

Verse (Delay, Distortion, Ring Mod)(Phaser?)            REPEAT INTRO x2
e-----------------0-------------0*---------xx-x-xxxxx--|-----------------
B----------------0--------------0*---------xx-x-xxxxx--|-----------------
G---------------0---------------0*---------xx-x-xxxxx--|-----------------
D--------------0---------------------------xx-x-xxxxx--|-----------------
A------77----------------------------------xx-x-xxxxx--|-----------------
E--555----5--------------------------------xx-x-xxxxx--|-----------------
                                ^ Strum these strings right next to the nut on the first fret.
Pre-Chorus (Ring Mod)
e--------------------------------------
B--------------------------------------
G-------------------------------------- Im not sure about this part..but it seems ok.
D--------------------------------------
A-3333333333333333333333555555599999xxx
E--------------------------------------
  ********************************** 
Chorus x2 (Distortion)
e-------------------------------------------------------------
B--------------------0----------------------------------------
G--4-444-4-444-4-444-2-5-4-444-4-444-777-9999-11111-1212121212
D--4-444-4-444-4-444-2-5-4-444-4-444-xxx-xxxx-xxxxx-xxxxxxxxxx
A--2-222-2-222-2-222-0-3-2-222-2-222-555-7777-9-9-9-1010101010
E--2-222-2-222-2-222-0-3-2-222-2-222--------------------------
     ...   ...   ...       ...   ...

2nd Verse (Same Effects)
e-----------------------------------------------------0-------------0*-------xx-x-xxxxx-|
B----------------------------------------------------0--------------0*-------xx-x-xxxxx-|REPEAT INTRO x2
G---------------------------------------------------0---------------0*-------xx-x-xxxxx-|REPEAT INTRO x2
D-------------------------------------------12-----0-------------------------xx-x-xxxxx-|REPEAT INTRO x2
A-----77----11/12-11-0-11-0--11/12-11-0-11-0---------------------------------xx-x-xxxxx-|      
E-555----5-------------------------------------------------------------------xx-x-xxxxx-|
[ Tab from: http://www.guitartabs.cc/tabs/i/incubus/glass_tab_ver_3.html ]
2nd Pre-Chorus (Distortion, Ring Mod)
e---------------------------------------------------------------
B---------------------------------------------------------------
G---------------------------------------------------------------
D---------------------------------------------------------------
A------77-------88--------3333333333333333333333555555599999xxx-
E--555----5-666----6--------------------------------------------
                          ********************************** 

Chorus x2 (Distortion)
e--------------------------------------------------------------
B--------------------0-----------------------------------------
G--4-444-4-444-4-444-2-5-4-444-4-444-777-9999-11111-1212121212-
D--4-444-4-444-4-444-2-5-4-444-4-444-xxx-xxxx-xxxxx-xxxxxxxxxx-
A--2-222-2-222-2-222-0-3-2-222-2-222-555-7777-9-9-9-1010101010-
E--2-222-2-222-2-222-0-3-2-222-2-222---------------------------
     ...   ...   ...       ...   ... <-- Palm Mute on those parts(.)

After the second chorus Mike uses the Ring Mod and Delay and messes around a bit. You can do the
same since i cant figure it out.

Breakdown? (Distortion, Compressor, Ring Mod)
e--000000000-----000000000-----000000000-----000000000-----------------------------------------------
B--000000000-11*-000000000-11*-000000000-11*-000000000-----------------------------------------------
G--000000000-----000000000-----000000000-----000000000-----------------------------------------------
D--000000000-----000000000-----000000000-----000000000-----------------------------------------------
A--000000000-----000000000-----000000000-----000000000--11/12-11-0-11-0--11/12-11-0-11-0---11-0-11-0-
E--000000000-----000000000-----000000000-----000000000-----------------------------------------------
              ^ Use a note compresser pedal thingy on that note.

Chorus x3
e--------------------------------------------------------------
B--------------------0-----------------------------------------
G--4-444-4-444-4-444-2-5-4-444-4-444-777-9999-11111-1212121212-
D--4-444-4-444-4-444-2-5-4-444-4-444-xxx-xxxx-xxxxx-xxxxxxxxxx-
A--2-222-2-222-2-222-0-3-2-222-2-222-555-7777-9-9-9-1010101010-
E--2-222-2-222-2-222-0-3-2-222-2-222---------------------------
     ...   ...   ...       ...   ... 

On the last chorus the end part changes, this is it. (Distortion, Ring Mod, Delay)
e--------------------------------------------------------0---
B-------------------------------------------------------0----
G---121212121212-111111-9999-777-4---------------------0-----
D---xxxxxxxxxxxx-xxxxxx-xxxx-xxx-x--------------------0------
A---101010101010-9-9-9--7777-555-2-----------77------0-------
E-----------------------------------------555---5------------
                                                     ^ Ring Mod and Delay here.

Well there you have it, its not perfect but what the hell its better than
the other ones people post. Any problems or tips or whatever e-mail me at:
MagGhstMd@aol.com
Comments