Incubus - Glass Chords & Tabs

 

Glass Chords & Tabs

Incubus Chords & Tabs

Version: 1 Type: Tab 0 ratings
1 star 2 stars 3 stars 4 stars 5 stars
comments

Glass Tab

   
Song: Glass
Artist: Incubus
Album: S.C.I.E.N.C.E

I heard this song on Moring View sessions and it made me buy the S.C.I.E.N.C.E. Cd. 
It's a great song. It's in Standard tuning.

Intro and Verses
With a mild dist. and effect     Play this in middle verse
e|-----------------------------------------  --18--
B|-----------------------------------------  ------
G|-----------------------------------------
D|--------0----------0-------0----------10-
A|--11-12---11-11-12---11-12---11-11-12----
E|-----------------------------------------

Riff before the verse and prechorus
e|-----------------------------------------
B|-----------------------------------------
G|-----------------------------------------
D|-----------------------------------------
A|--------7---------8----------------------
E|--5-5-5---5-6-6-6---6--------------------
[ Tab from: http://www.guitartabs.cc/tabs/i/incubus/glass_tab.html ]
Prechorus He uses a octave effect pedal and plays it different
e|-21-21-21-21-21-21-21-21-21-21-21-------------
B|----------------------------------------------
G|-----------------from 21 all the way down to 4
D|----------------------------------------------
A|----------------------------------------------
E|----------------------------------------------

Chorus
e|---------------------------------------------------------
B|---------------------------------------------------------
G|--4-4-4-4-4-4-4-2-5-4-4-4-4-4-4-4-7-9-12-14-14-----------
D|--4-4-4-4-4-4-4-2-5-4-4-4-4-4-4-4-7-9-12-14-14-----------
A|--2-2-2-2-2-2-2-0-3-2-2-2-2-2-2-2-5-7-10-12-12-----------
E|--2-2-2-2-2-2-2---3-2-2-2-2-2-2-2------------------------

Bridge
e|-----------------------------------------
B|-----------------------------------------
G|-----------------------------------------
D|---5-5-5-5-5-5-5-5-----------------------
A|---3-3-3-3-3-3-3-3--------X4-------------
E|---2-2-2-2-2-2-2-2-----------------------

There you go. It's kind of shaky but it's pretty difficult.
Comments