Incubus - Follow Chords & Tabs

 

Follow Chords & Tabs

Incubus Chords & Tabs

Version: 2 Type: Tab 0 ratings
1 star 2 stars 3 stars 4 stars 5 stars
comments

Follow Tab

Artist : Incubus
Song   : Follow (1st Movement of the Odyssey)
Album  : Halo 2 original soundtrack
	 Extra CD included with "Alive at Red Rocks" DVD
Tabbed : Sean Provolone


Part 1

E|-----------------------------------------------------------------|
B|-----------------------------------------------------------------|
G|------------------------------------------12---------------------|
D|----------12----------15----14---12-14-15----15-14-12------------|
A|-12-14-15----15-14-12----12--------------------------------------|
E|-----------------------------------------------------------------|

E|------------------------------------------------------------------|
B|------------------------------------------------------------------|
G|------------------------------------------13----------14-12-------|
D|----------12----------15----14--12-14-15-----15-14-12-------15-14-|
A|-12-14-15----15-14-12----12---------------------------------------|
E|------------------------------------------------------------------|


Part 2 (slightly lower volume)
[ Tab from: http://www.guitartabs.cc/tabs/i/incubus/follow_tab_ver_2.html ]
E|-----------------------------------------------------------------|
B|-----------------------------------------------------------------|
G|-2---2---2---2---1-----------------------------------------------|
D|-2---3---2---3---2-----------------------------------------------|
A|-0---3---0---3---2-----------------------------------------------|
E|-----------------------------------------------------------------|


Part 3 (Back to Full volume)

E|-----------------------------------------------------------------|
B|-----------------------------------------------------------------|
G|-2---5---2-----------2---5---------------------------------------|
D|-2---5---2---3---2---2---5---3---2-------------------------------|
A|-0---3---0---3---2---0---3---3---2-------------------------------|
E|-------------1---0-----------1---0-------------------------------|

I did not include rythem because it would be too hard to do due to
the different time signatures.  Maybe at a later time after I get
done figuring out the other three movements.  Any comments, please
send to sp2886@hotmail.com.  Thanks.
Comments