Incubus - Follow Chords & Tabs

 

Follow Chords & Tabs

Incubus Chords & Tabs

Version: 1 Type: Tab 3 ratings
1 star 2 stars 3 stars 4 stars 5 stars
comments

Follow Tab

   
Artist: Incubus
Title: Follow
Album: Halo 2 original sound track
Tabbed by: Wilbur Wong
           MrAzn00@hotmail.com
           WillyWong99@msn.com

I have been searching online for tab on this song, and from what I have seen so far none of them seem to
match the song. This is the most accurate tab(in my opinion) because I have spent tons of time working on it.
now to the tab

Standard tuning(E A D G B E)

Main riff
[ Tab from: http://www.guitartabs.cc/tabs/i/incubus/follow_tab.html ]
E|-------------------------------------------|
A|---------------------------------8---------|
D|--------7----------10-9---7-9-10----10-9-7-|
G|-7-9-10---10-9-7---------------------------|
B|-------------------------------------------|
E|-------------------------------------------|

E|-----------------------------------------------------|
A|---------------------------------8---------10-9------|
D|--------7----------10-9---7-9-10----10-9-7------10-9-|
G|-7-9-10---10-9-7-------------------------------------|
B|-----------------------------------------------------|
E|-----------------------------------------------------|

Chorus

E|-------------------------------------|
A|-------------------------------------|
D|-2-2-2---5-5-5--2-2-2---2-2-2--1-1-1-|
G|-2-2-2---5-5-5--2-2-2---3-3-3--2-2-2-|
B|-0-0-0---3-3-3--0-0-0---2-2-2--2-2-2-|
E|-------------------------------------|
Comments