Incubus - Echo Chords & Tabs

 

Echo Chords & Tabs

Incubus Chords & Tabs

Version: 5 Type: Tab 0 ratings
1 star 2 stars 3 stars 4 stars 5 stars
comments

Echo Tab

Song: echo
Album: Morning View
Artist: Incubus
Tabbed by: HilikusX02

This is a very complicated song. Listen to the song to get
the rythym right, some parts are tricky.   


intro x4:

Bend                                               
                       |  			 |  |
-----------------------------------------------------------
-----0-------------------------------------------------0---
-----2--2/4--4/7--7/9--9/7-------4--4/7--7/4-----4--4--2---
-----2--2/4--4/7--7/9--9/7-------4--4/7--7/4-----4--4--2---
---0---------------------------2-2--2/5--5/2---------------
-0---------------------------0-----------------0-----------

verse x4:

let ring

-0--------------0---------------0----0------------------0---
-0-----------0-----0-----------3--------3--------------0----
-2--------2-----------2-------4------------4----------2-----
-4-----4-----------------4---4----------------4------2------
-0--0-----------------------2--------------------2--0-------
------------------------------------------------------------

pre chorus x2:

----------3-----------------3-----------1-----------------1---
----------0----------------0------------1----------------1----
----------0---------------0-------------0---------------0-----
----------0--------------0--------------0--------------0------
----5-----------5-----5-----------3-----------3-----3---------
-5-----5-----5-----5-----------3-----3-----3-----3------------

chorus x4:

Bend                                               
                       |  	                 |  |
-----------------------------------------------------------
-----0-------------------------------------------------0---
-----2--2/4--4/7--7/9--9/7-------4--4/7--7/4-----4--4--2---
-----2--2/4--4/7--7/9--9/7-------4--4/7--7/4-----4--4--2---
---0---------------------------2-2--2/5--5/2---------------
-0---------------------------0-----------------0-----------

solo:
[ Tab from: http://www.guitartabs.cc/tabs/i/incubus/echo_tab_ver_5.html ]
bend                   full
		        |
-19--------------------------------------------------------------------
-----22-19-------------------------------------------------------------
-----------21-19---------------------------------------19-21-19--------
-----------------21-19-21------------------------19-21-----------------
-------------------------------19-21-19----19-21-----------------------
-----------------------------------------------------------------------

Bend		            full
			     |
--------------------19-------------------------------------------------
-------------19--------22-19-------------------------------------------
-19-21-19-21-----------------21-19-------------------------------------
-----------------------------------21-19-------------------------------
-----------------------------------------------------------------------
-----------------------------------------------------------------------

verse x4:

let ring

-0--------------0---------------0----0------------------0---
-0-----------0-----0-----------3--------3--------------0----
-2--------2-----------2-------4------------4----------2-----
-4-----4-----------------4---4----------------4------2------
-0--0-----------------------2--------------------2--0-------
------------------------------------------------------------

pre chorus x2:

----------3-----------------3-----------1-----------------1---
----------0----------------0------------1----------------1----
----------0---------------0-------------0---------------0-----
----------0--------------0--------------0--------------0------
----5-----------5-----5-----------3-----------3-----3---------
-5-----5-----5-----5-----------3-----3-----3-----3------------

chorus x4:

Bend                                               
                       |  	                 |  |
-----------------------------------------------------------
-----0-------------------------------------------------0---
-----2--2/4--4/7--7/9--9/7-------4--4/7--7/4-----4--4--2---
-----2--2/4--4/7--7/9--9/7-------4--4/7--7/4-----4--4--2---
---0---------------------------2-2--2/5--5/2---------------
-0---------------------------0-----------------0-----------

outro:


-0--------------0------------------0--- 
-0-----------0-----0--------------0----
-2--------2-----------2----------2-----
-4-----4-----------------4------2------
-0--0-----------------------0----------
---------------------------------------

lightly rake, repeat several times

-0--------
--0-------
---2------
----4-----
-----0----
------0---
Comments