Incubus - Echo Chords & Tabs

 

Echo Chords & Tabs

Incubus Chords & Tabs

Version: 4 Type: Tab 1 rating
1 star 2 stars 3 stars 4 stars 5 stars
comments

Echo Tab

Tab number one for me...I hope this doesn't take too
long. I also hope this isn't wrong because I don't support
propagation of incorrect tab on the net:

Main:

e-------0--------------------------------------------------
B-------0--------------------------------------------------
G-----------2/-4---4/-7---7/-9bp(10)--7-7------------------
D-----------2/-4---4/-7---7/-9bp(10)--7-7------------------
A----0-----------------------------------------------------
D---0------------------------------------------------------
       ..yes, bend 9 then pick...its weird, listen to it

e----------------------------------------------------------
B----------------------------------------------------------
G-----------4---4/-7--7-----4--4b(5)---2-2-----------------
D---------4-----4/-7--7---4-4--4b(5)---2-2-----------------
A---0--2---------------2-----------------------------------
D----------------------------------------------------------
      You can leave out some of the softly picked strings
      and stick to the slides, but then you're not cool.

Softer Part:

e--(0)----0------------0----------------------
B--(0)---0-0--------3---3---------------------
G--(2)--2---2-------4----4--------------------
D--(4)-------4------4-----4-------------------
A--(0)--------------2-------(2)---------------
D---0-----------------------------------------
   ^ Whole chord played first, just D afterwards
     The (2) at the end is sometimes picked
[ Tab from: http://www.guitartabs.cc/tabs/i/incubus/echo_tab_ver_4.html ]
Bridge:
                (strum)              (strum)
e-----------------x--------------------x-------
B-------7---------7----------6---------6-------
G-------7---------7----------5---------5-------
D-------5---------5----------3---------3-------
A---5--------5----5------3--------3----3-------
D--5-5------5-5---5-----3-3------3-3---3-------
      listen for strumming pattern
      if you've got something better than this e-mail me

Solo:

e---19--17--------------------------------------------
B-----------19--17------------------------------------
G-------------------19--16--14--16--------------------
D-------------------------------------14--16--14------
A-----------------------------------------------------
D-----------------------------------------------------

e-------------------------------------------------14--
B-------------------15--17--15----15--17--15--17------
G-----------14--16------------------------------------
D---14--16--------------------------------------------
A-----------------------------------------------------
D-----------------------------------------------------

e---19--17--------------------------------------------
B-----------19--17b--15-------------------------------
G------------------------16--14-----------------------
D-----------------------------------------------------
A-----------------------------------------------------
D-----------------------------------------------------
            be sure to use vibrato!

Fadeout:

e-----0--------------0-------------------------------
B----0-0--------------0------------------------------
G---2---2--------------2-----------------------------
D--------4---x3---------4------(strum to finish------
A------------------------0---------backwards)--------
D-------------------------0--------------------------
          
If you're playing this on acoustic like me you may 
consider adding a few small bass notes just for effect,
also make sure you have waxed strings otherwise slides
sound like the killing noise from Friday the 13th, and
you're not gonna get any ladies that way.

fixes to tigersha@aol.com
Comments