Incubus - Echo Chords & Tabs

 

Echo Chords & Tabs

Incubus Chords & Tabs

Version: 3 Type: Tab 0 ratings
1 star 2 stars 3 stars 4 stars 5 stars
comments

Echo Tab

Incubus

intro/chorus
-------------------------------------------------
-------------------------------------------------
---7------------------------9--------------------
---77/9-9/12-12/14-b14/12---99/12-12/9---99-b9/7-
--7-7/9-9/12-12/14-b14/12--9-9/12-12/9--9-9-b9/7-
-0------------------------7----------------------

verse
--------------------
-7-----------5-5-----
-9---9-------7--7----
-9--9-9------7---7---
-7-7---7-----5----5--
-0------(0)--0-----(0)
[ Tab from: http://www.guitartabs.cc/tabs/i/incubus/echo_tab_ver_3.html ]
i need help with the pre chorus 

solo
E-19-17~-14~-b12---------------------------------------------------------
B---------------15~-12-10-12--------------------13-15-13--15-17-15-17-19-
G----------------------------9-11-9~--9-11-12-14-------------------------

E-19-17-14-b12-------------------
B-------------15-12-10~~~--------
G--------------------------------

outro
-------------
-7-----------
--9----------  strum this lightly a few times
---9---------
----7--------
-----0-------


Comments