Incubus - Echo Chords & Tabs

 

Echo Chords & Tabs

Incubus Chords & Tabs

Version: 1 Type: Bass Tab 0 ratings
1 star 2 stars 3 stars 4 stars 5 stars
comments

Echo Bass Tab

   
Incubus: Echo
Album: Morning View

Standard Tuning
[ Tab from: http://www.guitartabs.cc/tabs/i/incubus/echo_btab.html ]
Intro/Verse/Main
G:-----|----------------------------------------
D:-----|----------------------------------9---9-
A:-----|----------------------------------------
E:--7\-|-*variations----7-5h7---and-----7---7---
B:3----|--------------3---------------3---------

Chorus
G:--------------------
D:--------------------
A:--------0-2---------
E:3-1-3-3-----1-1/13\1
B:--------------------

Outro
G:--
D:--
A:--
E:--
B:3~
(repeat as needed)

Fairly simple song. 
Any ? or comments email me.
lpbrown@iastate.edu
INCUBUS ROCKS!!
Comments