Incubus - Drive Chords & Tabs

 

Drive Chords & Tabs

Incubus Chords & Tabs

Version: 9 Type: Tab 0 ratings
1 star 2 stars 3 stars 4 stars 5 stars
comments

Drive Tab

Incubus- Drive Solo (about 2:30 into song)

Standard Tuning

E--------------7-5-3-5--------------------------------
B---5-5-5-5------------3-5-5-3--5p3-5--5p3-5----------
G------------------------------------------------------
D------------------------------------------------------
A------------------------------------------------------
E------------------------------------------------------
[ Tab from: http://www.guitartabs.cc/tabs/i/incubus/drive_tab_ver_9.html ]
E--3-5-7-7-5-10-7-5-7s5-------------------------------
B-------------------------------3-5-5-3---------------
G-----------------------------------------------------
D-----------------------------------------------------
A-----------------------------------------------------
E-----------------------------------------------------

E---5-5-5-5-3-3---------------------------------------
B-----------------5-5-3-3-3-3-5-----------------------
G-----------------------------------------------------
D-----------------------------------------------------
A-----------------------------------------------------
E-----------------------------------------------------

Thats it... with questions or comments, E-mail me at 
mountiboi@aol.com
Comments