Incubus - Drive Chords & Tabs

 

Drive Chords & Tabs

Incubus Chords & Tabs

Version: 7 Type: Tab 0 ratings
1 star 2 stars 3 stars 4 stars 5 stars
comments

Drive Tab

Author/Artist: Incubus
Title: Drive
Album: Make Yourself
Tabbed by Steve King, SKOutsider@aol.com

Intro, verse
e|-----0-0------------------------------------------------------|
b|-----8-8-x---7-7-----5-5-x---3-3-3----------------------------|
g|-----0-0-x---7-7-----4-4-x---0-0-0----------------------------|
d|-----9-9-x---5-5---5-5-5-x---5-5-5----------------------------|
a|---7-7-7---7-7-7-3---3-3-----0-0-0----------------------------|
e|-0-------------------------5-5-5-5----------------------------|

                                                                              
Pre-chorus…
e|------------------0-0---0----0--------0-0-0-0--0-0---0----0-----|
b|-----5-5-----5-5--2-2---2h3—-2h3------3-3-3-3--2-2---2h3--2h3---|
g|-----4-4-----4-4--0-0---0----0--------0-0-0-0--0-0---0----0-----|
d|---5-5-5-----5-5--2-2---2----2------2-2-2-2-2--2-2---2----2-----|
a|-3---3-3-3-3-3-3--0-0-0-0—-0-0--0--3--3-3-3-3--0-0-0-0—-0-0--0--|
e|----------------------------------------------------------------|
[ Tab from: http://www.guitartabs.cc/tabs/i/incubus/drive_tab_ver_7.html ]
e|------------------0-0---0----0--------0-0-0-0--0----------------|
b|-----5-5-----5-5--2-2---2h3—-2h3------3-3-3-3--2----------------|
g|-----4-4-----4-4--0-0---0----0--------0-0-0-0--0----------------|
d|---5-5-5-----5-5--2-2---2----2------2-2-2-2-2--2----------------|
a|-3---3-3-3-3-3-3--0-0-0-0—-0-0--0--3--3-3-3-3--0----------------|
e|----------------------------------------------------------------| 
                                                                           
Guitar Solo…
e|-------------7-5\3-3-3-5-----------------------3-5-5/7-7-5----|
b|-3/5-5-5-5-7-------------3-5-3/5\3-5-3/5-5-3/5----------------|
g|--------------------------------------------------------------|
d|--------------------------------------------------------------|
a|--------------------------------------------------------------|
e|--------------------------------------------------------------|
                                                                              

e|10\7-7-7-5-7--------------------5-3h5-5-3-3-------------------|
b|----------------5\3-3-5-3h5-3-0-3------------5-3h5-3----------|
g|-------------------------------4--------------------4-2-2h4-4-|
d|--------------------------------------------------------------|
a|--------------------------------------------------------------|
e|--------------------------------------------------------------|

Comments