Incubus - Drive Chords & Tabs

 

Drive Chords & Tabs

Incubus Chords & Tabs

Version: 6 Type: Tab 0 ratings
1 star 2 stars 3 stars 4 stars 5 stars
comments

Drive Tab

Tabbed by Mr. Robinson

Someone commented on this tab, i think i got the really thing now. The first chord i have here is used in the "live" performances. The alternate first chord should be the real thing

E|------0------0------0------0------------|
B|------8------7------5------5------------|
G|------7------7------4------4------------|
D|------5------5---2--5------5------------|
A|--7---7------7--3---3------0------------|
E|-0----0------x------x------5------------|

you could also play the first chord like this

E|---------------
B|-----8-------
G|---------------
D|---9-9-------
A|---------------
E|-0-------------



[ Tab from: http://www.guitartabs.cc/tabs/i/incubus/drive_tab_ver_6.html ]
E----------7--5--3--5-------------------------
B--5-5-5-5-------------3--5--5--3--5--5--5-5--
G---------------------------------------------
D---------------------------------------------
A---------------------------------------------
E---------------------------------------------


E----------7--5--3--5-------------------------
B--5-5-5-5-------------3--5--5--3--5--5--5-5--
G---------------------------------------------
D---------------------------------------------
A---------------------------------------------
E---------------------------------------------

E-0-5-5-3-3---------------------------------
B-----------5-3------------------------------
G---------------4-2-2h4-44-----------------
D--------------------------------------------
A--------------------------------------------
E--------------------------------------------
Comments