Incubus - Drive Chords & Tabs

 

Drive Chords & Tabs

Incubus Chords & Tabs

Version: 5 Type: Tab 0 ratings
1 star 2 stars 3 stars 4 stars 5 stars
comments

Drive Tab

This is the REAL version. This is also my first tab but i know this is right.
   
     Intro/Verse/Chorus
e--------0-----0------------0-----0--------
b--------8-----7------------5-----5--------
g--------0-----7------------4-----0--------
d--------9-----5--------5---5-----5--------
a----7---7-----7-----3------3-----0--------
e-0-------------------------------5--------
     
   You dont play each chord just once, but if you\\\'ve the heard it should be really easy to figure out. It\\\'s the sae with the bridge.
     
     Bridge
e---0-----0-----0-----0--------------------
b---5-----5-----5-----2--------------------
g---4-----0-----4-----0--------------------
d---5-----5-----5-----2--------------------
a---3-----0-----3--------------------------
e---------5--------------------------------
     
[ Tab from: http://www.guitartabs.cc/tabs/i/incubus/drive_tab_ver_5.html ]
 In the solo the guitar player uses some kind of weird wah pedal so it wont sound the same.
        
     Solo
e-----------7--5--3--5---------------------
b--5-5-5-5--------------3--5-5--3-3--5--5--
g------------------------------------------
d------------------------------------------
a------------------------------------------
e------------------------------------------

e--3--5--7-7--5--10--7--5--7--------------
b-----------------------------5--3---5--5-
g-----------------------------------------
d-----------------------------------------
a-----------------------------------------
e-----------------------------------------

e------5--3--------------------------------
b-3-3--------5--3--------------------------
g------------------4--2h--4----------------
d------------------------------------------
a------------------------------------------
e------------------------------------------
Comments