Incubus - Drive Chords & Tabs

 

Drive Chords & Tabs

Incubus Chords & Tabs

Version: 4 Type: Tab 11 ratings
1 star 2 stars 3 stars 4 stars 5 stars
comments

Drive Tab

   
Acoustic Guitar tuned Straight E A D G B E
 
Artist: Incubus
Song:drive
Album: make yourself
 


*- let ring
/slide up
\slide down

Intro, Verse & Chorus

e--------3--3--3-------2---------0--0--0------0--------
B--------0--0--0-------3---------1--1--1------2--------
G--------0--0--0-------2---------0--0--0------2--------
D--------2--2--2---0---0-------2--------------2--------
A-----2---------------------3--------------0--0--------
E--0---------------------------------------------------


Pre-Chorus

e---0--0--0--0----0--0--0--0----0--0--0--0----0--0--0--0---
B---1--1--1--1----2--2--2--2----3--3--3--3----2--2--2--2---
G---0--0--0--0----0--0--0--0----0--0--0--0----2--2--2--2---
D---2--2--2--2----2--2--2--2----2--2--2--2----2--2--2--2---
A---3--3--3--3----0--0--0--0----3--3--3--3----0--0--0--0---
E----------------------------------------------------------


Solo
[ Tab from: http://www.guitartabs.cc/tabs/i/incubus/drive_tab_ver_4.html ]
e-----------------------------------------------------------
B----------12-10-8*-10---------------------8-10-12-12-------
G-9-9-9-9*-------------7*-9-9-7*-9-9*-9-9*------------------
D-----------------------------------------------------------
A-----------------------------------------------------------
E-----------------------------------------------------------

e----10-----------------------------------------------------
B-10----12-10-12------------10*-10-8-8----------------------
G----------------9\7*-9-9-7------------9-9-7----------------
D--------------------------------------------9-7-7/9--------
A-----------------------------------------------------------
E-----------------------------------------------------------


This is heard in the bachground:

e-12----12----12----12--------------------------------------
B----12----12----12----12-----------------------------------
G-----------------------------------------------------------
D-----------------------------------------------------------
A-----------------------------------------------------------
E-----------------------------------------------------------
Comments