Incubus - Drive Chords & Tabs

 

Drive Chords & Tabs

Incubus Chords & Tabs

Version: 13 Type: Tab 0 ratings
1 star 2 stars 3 stars 4 stars 5 stars
comments

Drive Tab

   
This is the drive tab to end all drive tabs. I will have to give props to
deathgrade cause he was the closest (almost bang on). So here we go...

()-note played very lightly
h=hammer-on
p=pull-off
x=muted string(s)
/-slide


       /|-------0--0--0------------------0--0--0-----------|
      / |-------8--8--8--x-----7---------5--5--5---x-----5-|
     /  |-------0--0--0--x-----7---------4--4--4---x-----x-|
    /   |----7--7-----7--x-----5---------5--5--5---x-----5-|
   /    |-------9-----9--x--7--7---0--3--3-----3---x-----x-|
  /     |-0----------------------------------------x--5--5-|   X2 (with one acoustic guitar)
INTRO
X1
  \     |-------0--0--0------------------0--0--0-----------|
   \    |-------8--8--8--x-----7---------5--5--5---x-----5-|
    \   |-------0--0--0--x-----7---------4--4--4---x-----x-|
     \  |----7--7-----7--x-----5---------5--5--5---x-----5-|
      \ |-------9-----9--x--7--7---0--3--3-----3---x-----x-|
       \|-0----------------------------------------x--5--5-|   X2 (with two acoustic guitars)


Verse  ********************************************************

|-------0--0--0------------------0--0--0-----------|
|-------8--8--8--x-----7---------5--5--5---x-----5-|
|-------0--0--0--x-----7---------4--4--4---x-----x-|
|---(7)-7-----7--x-----5---------5--5--5---x-----5-|
|-------9-----9--x-(7)-7--(0)(3)-3-----3---x-----x-|
|(0)---------------------------------------x-(5)-5-|
...........Sometimes....I feel the fear of.........

|-------0--0--0------------------0--0--0-----------|
|-------8--8--8--x-----7---------5--5--5---x-----5-|
|-------0--0--0--x-----7---------4--4--4---x-----x-|
|---(7)-7-----7--x-----5---------5--5--5---x-----5-|
|-------9-----9--x-(7)-7--(0)(3)-3-----3---x-----x-|
|(0)---------------------------------------x-(5)-5-|
uncertainty stinging clear.........................

|-------0--0--0------------------0--0--0-----------|
|-------8--8--8--x-----7---------5--5--5---x-----5-|
|-------0--0--0--x-----7---------4--4--4---x-----x-|
|---(7)-7-----7--x-----5---------5--5--5---x-----5-|
|-------9-----9--x-(7)-7--(0)(3)-3-----3---x-----x-|
|(0)---------------------------------------x-(5)-5-|
............And I can't help but ask myself how much 

|-------0--0--0------------------0--0--0-----------|
|-------8--8--8--x-----7---------5--5--5---x-----5-|
|-------0--0--0--x-----7---------4--4--4---x-----x-|
|---(7)-7-----7--x-----5---------5--5--5---x-----5-|
|-------9-----9--x-(7)-7--(0)(3)-3-----3---x-----x-|
|(0)---------------------------------------x-(5)-5-|
I'll let the fear take the wheel and steer

Verse END  **********************************************

Pre-Chorus  *********************************************

|-----00--000-0---00---00--000-0---000---|
|-----55--555-5---55---22--222-2---222---|
|-----44--444-4---44---00--000-0---000---|
|-----55--555-5---55---22--222-2---222---|
|--3--33--333-3---33---00--000-0---000---|
|----------------------------------------|
      It's driven me beforrrre, and it seems to have a        

|-----00--000-0---00---00--000-0---000---|
|-----55--555-5---55---22--222-2---222---|
|-----44--444-4---44---00--000-0---000---|
|-----55--555-5---55---22--222-2---222---|
|--3--33--333-3---33---00--000-0---000---|
|----------------------------------------|
   vaaaaaague,       haunting mass appeal.

|-----00--000-0---00---00--000-0---000---|
|-----55--555-5---55---22--222-2---222---|
|-----44--444-4---44---00--000-0---000---|
|-----55--555-5---55---22--222-2---222---|
|--3--33--333-3---33---00--000-0---000---|
|----------------------------------------|
      But lately I'm beginning to find that        

|-----00--000-0---00---0-----------------|
|-----55--555-5---55---2-----------------|
|-----44--444-4---44---0-----------------|
|-----55--555-5---55---2-----------------|
|--3--33--333-3---33---0-----------------|
|----------------------------------------|
   I should be the one behind the wheel.

Pre-Chorus END ***************************************

Chorus ***********************************************

|-------0--0--0------------------0--0--0-----------|
|-------8--8--8--x-----7---------5--5--5---x-----5-|
|-------0--0--0--x-----7---------4--4--4---x-----x-|
|----7--7-----7--x-----5---------5--5--5---x-----5-|
|-------9-----9--x--7--7---0--3--3-----3---x-----x-|
|-0----------------------------------------x--5--5-|
           Whatever tomorrow brings,   I'll be therrr

|-------0--0--0------------------0--0--0-----------|
|-------8--8--8--x-----7---------5--5--5---x-----5-|
|-------0--0--0--x-----7---------4--4--4---x-----x-|
|----7--7-----7--x-----5---------5--5--5---x-----5-|
|-------9-----9--x--7--7---0--3--3-----3---x-----x-|
|-0----------------------------------------x--5--5-|
rrrrrrrr           with open arms and open eyes, Yeah

|-------0--0--0------------------0--0--0-----------|
|-------8--8--8--x-----7---------5--5--5---x-----5-|
|-------0--0--0--x-----7---------4--4--4---x-----x-|
|----7--7-----7--x-----5---------5--5--5---x-----5-|
|-------9-----9--x--7--7---0--3--3-----3---x-----x-|
|-0----------------------------------------x--5--5-|
           Whatever tomorrow brings,   I'll be therrr

|-------0--0--0------------------0--0--0-----------|
|-------8--8--8--x-----7---------5--5--5---x-----5-|
|-------0--0--0--x-----7---------4--4--4---x-----x-|
|----7--7-----7--x-----5---------5--5--5---x-----5-|
|-------9-----9--x--7--7---0--3--3-----3---x-----x-|
|-0----------------------------------------x--5--5-|
rrrrrrr                I'll be therrrrrrrrrre

Chorus END  ****************************************
Verse  *********************************************

|-------0--0--0------------------0--0--0-----------|
|-------8--8--8--x-----7---------5--5--5---x-----5-|
|-------0--0--0--x-----7---------4--4--4---x-----x-|
|---(7)-7-----7--x-----5---------5--5--5---x-----5-|
|-------9-----9--x-(7)-7--(0)(3)-3-----3---x-----x-|
|(0)---------------------------------------x-(5)-5-|
......So if I....decide to waiver my...Chance to be

|-------0--0--0------------------0--0--0-----------|
|-------8--8--8--x-----7---------5--5--5---x-----5-|
|-------0--0--0--x-----7---------4--4--4---x-----x-|
|---(7)-7-----7--x-----5---------5--5--5---x-----5-|
|-------9-----9--x-(7)-7--(0)(3)-3-----3---x-----x-|
|(0)---------------------------------------x-(5)-5-|
One of the............hive.........................

|-------0--0--0------------------0--0--0-----------|
|-------8--8--8--x-----7---------5--5--5---x-----5-|
|-------0--0--0--x-----7---------4--4--4---x-----x-|
|---(7)-7-----7--x-----5---------5--5--5---x-----5-|
|-------9-----9--x-(7)-7--(0)(3)-3-----3---x-----x-|
|(0)---------------------------------------x-(5)-5-|
...............will I choose water over wine and hold 

|-------0--0--0------------------0--0--0-----------|
|-------8--8--8--x-----7---------5--5--5---x-----5-|
|-------0--0--0--x-----7---------4--4--4---x-----x-|
|---(7)-7-----7--x-----5---------5--5--5---x-----5-|
|-------9-----9--x-(7)-7--(0)(3)-3-----3---x-----x-|
|(0)---------------------------------------x-(5)-5-|
my own and drive?

Verse END  *********************************************
Pre-Chorus  ********************************************

|-----00--000-0---00---00--000-0---000---|
|-----55--555-5---55---22--222-2---222---|
|-----44--444-4---44---00--000-0---000---|
|-----55--555-5---55---22--222-2---222---|
|--3--33--333-3---33---00--000-0---000---|
|----------------------------------------|
      It's driven me beforrrre, and it seems to be the        

|-----00--000-0---00---00--000-0---000---|
|-----55--555-5---55---22--222-2---222---|
|-----44--444-4---44---00--000-0---000---|
|-----55--555-5---55---22--222-2---222---|
|--3--33--333-3---33---00--000-0---000---|
|----------------------------------------|
   waaaaaay,       that everyone else gets around.
[ Tab from: http://www.guitartabs.cc/tabs/i/incubus/drive_tab_ver_13.html ]
|-----00--000-0---00---00--000-0---000---|
|-----55--555-5---55---22--222-2---222---|
|-----44--444-4---44---00--000-0---000---|
|-----55--555-5---55---22--222-2---222---|
|--3--33--333-3---33---00--000-0---000---|
|----------------------------------------|
     But lately I'm beginning to find that when  

|-----00--000-0---00---0-----------------|
|-----55--555-5---55---2-----------------|
|-----44--444-4---44---0-----------------|
|-----55--555-5---55---2-----------------|
|--3--33--333-3---33---0-----------------|
|----------------------------------------|
   I drive myself my light is found

Pre-Chorus END ***************************************
Chorus ***********************************************

|-------0--0--0------------------0--0--0-----------|
|-------8--8--8--x-----7---------5--5--5---x-----5-|
|-------0--0--0--x-----7---------4--4--4---x-----x-|
|----7--7-----7--x-----5---------5--5--5---x-----5-|
|-------9-----9--x--7--7---0--3--3-----3---x-----x-|
|-0----------------------------------------x--5--5-|
           Whatever tomorrow brings,   I'll be therrr

|-------0--0--0------------------0--0--0-----------|
|-------8--8--8--x-----7---------5--5--5---x-----5-|
|-------0--0--0--x-----7---------4--4--4---x-----x-|
|----7--7-----7--x-----5---------5--5--5---x-----5-|
|-------9-----9--x--7--7---0--3--3-----3---x-----x-|
|-0----------------------------------------x--5--5-|
rrrrrrrr           with open arms and open eyes, Yeah

|-------0--0--0------------------0--0--0-----------|
|-------8--8--8--x-----7---------5--5--5---x-----5-|
|-------0--0--0--x-----7---------4--4--4---x-----x-|
|----7--7-----7--x-----5---------5--5--5---x-----5-|
|-------9-----9--x--7--7---0--3--3-----3---x-----x-|
|-0----------------------------------------x--5--5-|
           Whatever tomorrow brings,   I'll be therrr

|-------0--0--0------------------0--0--0-----------|
|-------8--8--8--x-----7---------5--5--5---x-----5-|
|-------0--0--0--x-----7---------4--4--4---x-----x-|
|----7--7-----7--x-----5---------5--5--5---x-----5-|
|-------9-----9--x--7--7---0--3--3-----3---x-----x-|
|-0----------------------------------------x--5--5-|
rrrrrrr                I'll be therrrrrrrrrre

Chorus END  *********************************************
Solo ****************************************************

Guitar 1
|-0-000-7-5-3-5-----------------3--5-777-5-10-7-5-3-5-------------5--5-33------|
|----------------3-55-3-55-55-------------------------33--55--33---------55-33-|
|------------------------------------------------------------------------------|
|------------------------------------------------------------------------------|
|------------------------------------------------------------------------------|
|------------------------------------------------------------------------------|

Guitar 2
|-------0--0--0------------------0--0--0-----------|
|-------8--8--8--x-----7---------5--5--5---x-----5-|
|-------0--0--0--x-----7---------4--4--4---x-----x-|
|----7--7-----7--x-----5---------5--5--5---x-----5-|
|-------9-----9--x--7--7---0--3--3-----3---x-----x-|
|-0----------------------------------------x--5--5-|X4
Solo END *************************************************
Pre_chorus  **********************************************

guitar 1
|----------------------------------------|
|----------------------------------------|
|---4--2p0-0h2-2-------------------------|
|----------------------------------------|
|----------------------------------------|
|----------------------------------------|

guitar 2              \/-guitar 1 comes in here
|-----00--000-0---00---00--000-0---000---|
|-----55--555-5---55---22--222-2---222---|
|-----44--444-4---44---00--000-0---000---|
|-----55--555-5---55---22--222-2---222---|
|--3--33--333-3---33---00--000-0---000---|
|----------------------------------------|
             Would you choose water over         

guitar 1 and 2
|-----00--000-0---00---0-----------------|
|-----55--555-5---55---2-----------------|
|-----44--444-4---44---0-----------------|
|-----55--555-5---55---2-----------------|
|--3--33--333-3---33---0-----------------|
|----------------------------------------|
   wine.... hold the wheel and drive

Pre_Chorus END******************************************
Chorus **************************************************

|-------0--0--0------------------0--0--0-----------|
|-------8--8--8--x-----7---------5--5--5---x-----5-|
|-------0--0--0--x-----7---------4--4--4---x-----x-|
|----7--7-----7--x-----5---------5--5--5---x-----5-|
|-------9-----9--x--7--7---0--3--3-----3---x-----x-|
|-0----------------------------------------x--5--5-|
           Whatever tomorrow brings,   I'll be therrr

|-------0--0--0------------------0--0--0-----------|
|-------8--8--8--x-----7---------5--5--5---x-----5-|
|-------0--0--0--x-----7---------4--4--4---x-----x-|
|----7--7-----7--x-----5---------5--5--5---x-----5-|
|-------9-----9--x--7--7---0--3--3-----3---x-----x-|
|-0----------------------------------------x--5--5-|
rrrrrrrr           with open arms and open eyes, Yeah

|-------0--0--0------------------0--0--0-----------|
|-------8--8--8--x-----7---------5--5--5---x-----5-|
|-------0--0--0--x-----7---------4--4--4---x-----x-|
|----7--7-----7--x-----5---------5--5--5---x-----5-|
|-------9-----9--x--7--7---0--3--3-----3---x-----x-|
|-0----------------------------------------x--5--5-|
           Whatever tomorrow brings,   I'll be therrr

|-------0--0--0------------------0--0--0-----------|
|-------8--8--8--x-----7---------5--5--5---x-----5-|
|-------0--0--0--x-----7---------4--4--4---x-----x-|
|----7--7-----7--x-----5---------5--5--5---x-----5-|
|-------9-----9--x--7--7---0--3--3-----3---x-----x-|
|-0----------------------------------------x--5--5-|
rrrrrrr                I'll be therrrrrrrrrre


|-------0--0--0------------------0--0--0-----------|
|-------8--8--8--x-----7---------5--5--5---x-----5-|
|-------0--0--0--x-----7---------4--4--4---x-----x-|
|----7--7-----7--x-----5---------5--5--5---x-----5-|
|-------9-----9--x--7--7---0--3--3-----3---x-----x-|
|-0----------------------------------------x--5--5-|
   Do, do, do    Do, do etc....................

|-------0--0--0------------------0--0--0-----------|
|-------8--8--8--x-----7---------5--5--5---x-----5-|
|-------0--0--0--x-----7---------4--4--4---x-----x-|
|----7--7-----7--x-----5---------5--5--5---x-----5-|
|-------9-----9--x--7--7---0--3--3-----3---x-----x-|
|-0----------------------------------------x--5--5-|
...................................................

|-------0--0--0------------------0--0--0-----------|
|-------8--8--8--x-----7---------5--5--5---x-----5-|
|-------0--0--0--x-----7---------4--4--4---x-----x-|
|----7--7-----7--x-----5---------5--5--5---x-----5-|
|-------9-----9--x--7--7---0--3--3-----3---x-----x-|
|-0----------------------------------------x--5--5-|
...................................................

|-------0--0--0------------------0--0--0-----------|
|-------8--8--8--x-----7---------5--5--5---x-----5-|
|-------0--0--0--x-----7---------4--4--4---x-----x-|
|----7--7-----7--x-----5---------5--5--5---x-----5-|
|-------9-----9--x--7--7---0--3--3-----3---x-----x-|
|-0----------------------------------------x--5--5-|
...................................................

|-----00--000-0---00-------0-------------|
|-----55--555-5---55------2--------------|
|-----44--444-4---44-----0---------------|
|-----55--555-5---55----2----------------|
|--3--33--333-3---33---0-----------------|
|----------------------------------------|
***********************************************************************

also in the song u can hear those high pitched notes. They are played by
a second guitar and very lightly. I didn't feel like putting it in.
|-12----12----12----12-------------------|
|----12----12----12----12----------------|
|----------------------------------------|
|----------------------------------------|
|----------------------------------------|
|----------------------------------------|

***************************************E N D******************
Comments