Incubus - Drive Chords & Tabs

 

Drive Chords & Tabs

Incubus Chords & Tabs

Version: 12 Type: Tab 0 ratings
1 star 2 stars 3 stars 4 stars 5 stars
comments

Drive Tab

Guitar Solo
-------------7-5\3-3-3-5-----------------------3-5-5/7-7-5-10\7-7-7-5-7-------
-5-5-5-5-----------------3-5-3/5\3-5-3/5-5-3/5--------------------------------
------------------------------------------------------------------------------
------------------------------------------------------------------------------
------------------------------------------------------------------------------
------------------------------------------------------------------------------
                                                                              

-7\5-------------0-5-3h5-5-3-3------------------------------------------------
-5\3-3-5-3h5-3-0-3-------------5-3h5-3----------------------------------------
-----------------4---------------------4-2-2/4--------------------------------
------------------------------------------------------------------------------
------------------------------------------------------------------------------
------------------------------------------------------------------------------
[ Tab from: http://www.guitartabs.cc/tabs/i/incubus/drive_tab_ver_12.html ]
Comments