Incubus - Drive Chords & Tabs

 

Drive Chords & Tabs

Incubus Chords & Tabs

Version: 11 Type: Tab 0 ratings
1 star 2 stars 3 stars 4 stars 5 stars
comments

Drive Tab

#-----------------------------------------------------------------------------#
#-- File created with Instab - http://www.pconline.com/~smcarey/instab.html --#
#-----------------------------------------------------------------------------#

Author/Artist: Incubus
Title: Drive
Album: Make Yourself
Transcribed by: Andrew Biles

This tab was made by studying the morning view session video for drive and so,
is pretty much spot on.  Solo was interpreted from the 'Make Yourself' cd,
so may not be perfect and needs some sort of vibrato effect used on it.
I've updated this slightly, there's now very few bits wrong with the tab
and there's the solo from the 'Make Yourself' book just before the lyrics,
it contains the two guitar parts that play it.

|-----0-0--------------------------
|-----8-8----7------5-5----5-5-5-5-
|-----0-0----7------4-4----0-0-0-0-
|---9-9-9----5----x-5-5----5-5-5-5-
|-----7-7--7-7--3---3-3----3-3-3-3-
|-0----------------------5-5-5-5-5- x8

|----------0---0-0-0-0-0------
|---5-5-5--2---2-2-0-2-0------
|---4-4-4--0---0-0-0-0-0------
|---5-5-5--2---2-2-2-2-2------
|-3-3-3-3--0---0-0-0-0-0------
|---------------------------0- x3   

----------0-|
---5-5-5--2-|
---4-4-4--0-|
---5-5-5--2-|
-3-3-3-3--0-|
------------| x1

|-----0-0--------------------------
|-----8-8----7------5-5----5-5-5-5-
|-----0-0----7------4-4----0-0-0-0-
|---9-9-9----5----x-5-5----5-5-5-5-
|-----7-7--7-7--3---3-3----3-3-3-3-
|-0----------------------5-5-5-5-5- x8 

|----------0---0-0-0-0-0------
|---5-5-5--2---2-2-0-2-0------
|---4-4-4--0---0-0-0-0-0------
|---5-5-5--2---2-2-2-2-2------
|-3-3-3-3--0---0-0-0-0-0------
|---------------------------0- x3   

----------0-|
---5-5-5--2-|
---4-4-4--0-|
---5-5-5--2-|
-3-3-3-3--0-|
------------| x1

|-----0-0--------------------------
|-----8-8----7------5-5----5-5-5-5-
|-----0-0----7------4-4----0-0-0-0-
|---9-9-9----5----x-5-5----5-5-5-5-
|-----7-7--7-7--3---3-3----3-3-3-3-
|-0----------------------5-5-5-5-5- x4

Solo
|-0-------3/7-5-3--5----------------------------3-5-5/7-7-5-7/10-7-5-
|-5-5-5-5------------3-3/5-5-3-3--3/5-5--3/5-5-----------------------
|--------------------------------------------------------------------
|--------------------------------------------------------------------
|--------------------------------------------------------------------
|--------------------------------------------------------------------

-7-------------5--5-3-3-----------------|
---5-3-3-5-5-3----------5-5-3-3---------|
--------------------------------4-2/4-4-|
----------------------------------------|
----------------------------------------|
----------------------------------------|
                                                                             
|----------0---0-0-0-0-0------
|---5-5-5--2---2-2-0-2-0------
|---4-4-4--0---0-0-0-0-0------
|---5-5-5--2---2-2-2-2-2------
|-3-3-3-3--0---0-0-0-0-0------
|---------------------------0- x1

----------0-|
---5-5-5--2-|
---4-4-4--0-|
---5-5-5--2-|
-3-3-3-3--0-|
------------| x1
[ Tab from: http://www.guitartabs.cc/tabs/i/incubus/drive_tab_ver_11.html ]
|-----0-0--------------------------
|-----8-8----7------5-5----5-5-5-5-
|-----0-0----7------4-4----0-0-0-0-
|---9-9-9----5----x-5-5----5-5-5-5-
|-----7-7--7-7--3---3-3----3-3-3-3-
|-0----------------------5-5-5-5-5- x8 

----------0-|
---5-5-5--2-|
---4-4-4--0-|
---5-5-5--2-|
-3-3-3-3--0-|
------------| x1

_____________________________________
Solo (Make Yourself book version):

|-----------7-(7)\5-\3--(3)/5-(5)\3--------------------------3-/5-5/7-
|-5-5-5-5/7-------------------------3-5-3/5\3--5-3/5--5-3/5-----------
|---------------------------------------------------------------------
|---------------------------------------------------------------------
|---------------------------------------------------------------------
|---------------------------------------------------------------------
| guitar 2
|
|-----------7-----5--3------5--------------------------------3--5-5/7-
|-------5---------------------------3-5-3h5-3--5-3h5--5-3h5-----------
|---------------------------------------------------------------------
|---------------------------------------------------------------------
|---------------------------------------------------------------------
|---------------------------------------------------------------------
  guitar 3


|-7-5--5/10--10/7-7--5-7--(7)\3------------------5-5-5\3-3---5--------------
|--------------------------5-\3--3-5--3/5-\3--3--------------5--5\3---------
|-------------------------------------------------------------------4-2-2/4-
|---------------------------------------------------------------------------
|---------------------------------------------------------------------------
|---------------------------------------------------------------------------
| guitar 2
|
|-7-5--7/10-------7--5-7-------------------------0-5-5-3-3------------------
|--------------------------5-\3--3-5--3h5-----3------3-----5-3h5--3---------
|---------------------------------------------4---------------------4-2-2---
|-------------------------------------------------------------------------3-
|---------------------------------------------------------------------------
|---------------------------------------------------------------------------
  guitar 3

__________________________________
Lyrics (www.anysonglyrics.com):

Sometimes I feel the fear of uncertainty stinging clear 
And I cant help but ask myself how much I'll let the fear take the wheel and steer 
It's driven me before, it seems to have a vague 
Haunting mass appeal 
Lately I'm beginning to find that I should be the one behind the wheel 
Whatever tomorrow brings, I'll be there 
With open arms and open eyes yeah 
Whatever tomorrow brings, I'll be there, I'll be there 
So if I decide to waiver my chance to be one of the hive 
Will I choose water over wine and hold my own and drive, oh oh 
It's driven me before, it seems to be the way 
That everyone else get around 
Lately, I'm beginning to find that when I drive myself, my light is found 
Whatever tomorrow brings, I'll be there 
With open arms and open eyes yeah 
Whatever tomorrow brings, I'll be there, I'll be there 
Would you choose water over wine 
Hold the wheel and drive 
Whatever tomorrow brings, I'll be there 
With open arms and open eyes yeah 
Whatever tomorrow brings, I'll be there, I'll be there
Comments