Incubus - Drive Live Chords & Tabs

 

Drive Live Chords & Tabs

Incubus Chords & Tabs

Version: 3 Type: Tab 0 ratings
1 star 2 stars 3 stars 4 stars 5 stars
comments

Drive Live Tab

Submitted by: Ira C (incufan_15)

Band: Incubus
Song Title: Drive (live)
Album: Make Yourself (1999)
Written By: Brandon Boyd, Mike Eizinger, Jose Pasillas, Alex Katunich, Chris Kilmore.

Wow, this is a totally easy song to play from my all-time favourite band,
incubus.  I am 1000000% positive that this is absolutely correct because, a) it
sounds perfect, and b) i saw mike playing this on the morning view sessions, plus
ive seen incubus live 3 times in the past year so here it is, if u want it doen
right.

Guitar: Acoustic (2002 tour played a PRS Hollow-body Electric)

Intro, Verse, Chorus

e|---------------------------------------------------------------------------|
B|-------8--8----------0-0-h7--------------5-5-5-5--------------(5)-(5)-(5)--|
G|-------9--9----------0-0-h7--------------4-4-4-4--------------(0)-(0)-(0)--|
D|---------------------5-5-5---------------5-5-5-5---------------5---5---5---|
A|---7---7--7----------0-0-h7--------------3-3-3-3---------------0---0---0---|
E|-0-------------------------------------------------------------5---5---5---|

Pre-Chorus, Outro

e|---------------------------------------------------------------------------|
B|---5--5--5--5--5-------2-2-2-2-2-2-----------------------------------------|
G|---4--4--4--4--4-------1-1-1-1-1-1-----( 3 Times )-------------------------|
D|---5--5--5--5--5-------2-2-2-2-2-2---( Outro: 1 Time )---------------------|
A|---3--3--3--3--3-----------------------------------------------------------|
E|---------------------------------------------------------------------------|

e|---------------------------------------------------------------------------|
B|-----------------5--5--5--5--5--------2------------------------------------|
G|--( 4th Time )---4--4--4--4--4--------1------------------------------------|
D|-(Outro: 1 time)-5--5--5--5--5--------2------------------------------------|
A|-----------------3--3--3--3--3---------------------------------------------|
E|---------------------------------------------------------------------------|

Solo
[ Tab from: http://www.guitartabs.cc/tabs/i/incubus/drive_live_tab_ver_3.html ]
e|----------7-5-3-5-----------------3-5-7-7-5-10-7-5-7-----------------------|
B|-5-5-5-5----------3-5-5-3-5-5-5-----------------------5-3-3-5-5-3----------|
G|---------------------------------------------------------------------------|
D|---------------------------------------------------------------------------|
A|---------------------------------------------------------------------------|
E|---------------------------------------------------------------------------|

e|-----5-5-5-3-3-------------------------------------------------------------| 
B|------------------5-5--3-3-------------------------------------------------|
G|-----------------------------4-4--2-2------0-2-----------------------------|
D|---------------------------------------------------------------------------|
A|---------------------------------------------------------------------------|
E|---------------------------------------------------------------------------|



Lyrics:

Verse 1:

Sometimes, I feel the fear 
of uncertainty stinging clear.
And I can't help but ask myself 
how much I'll let the fear 
take the wheel and steer.

Pre-Chorus:

It's driven me before, 
and it seems to have a vague, 
haunting mass appeal.
But lately I am beginning to find out 
I should be the one behind the wheel.

Chorus:

Whatever tomorrow brings, I'll be there 
with open arms and open eyes, yeah
Whatever tomorrow brings, I'll be there

Verse 2:

So if I decide to waiver my 
chance to be one of the hive 
will I choose water over wine 
and hold my own and drive? 

Pre Chorus:

It's driven me before and 
it seems to be the way that everyone else gets around.
But lately I'm beginning to find that 
when I drive myself my light is found.

Chorus:

Whatever tomorrow brings, 
I'll be there with open arms and open eyes. yeh
Whatever tomorrow brings Ill be there, Ill be there

SOLO

Outro:

Would you choose water over wine.... hold the wheel and drive? 

Chorus till end...




Any questions or comments?
my e-mail is: incufan_15@hotmail.com
Comments