Incubus - Drive Live Chords & Tabs

 

Drive Live Chords & Tabs

Incubus Chords & Tabs

Version: 1 Type: Tab 0 ratings
1 star 2 stars 3 stars 4 stars 5 stars
comments

Drive Live Tab

Drive by incubus, and it rocks


Figure out the timing by listening to the track, it aint rocket science
(i watched the video to make sure my chords looked the same)

Intro and Chorus (listen to the song and sort of scratch or palm mute while you change chords)

e------0-0--x-x-------------0-0--x-x---x--x---------------------
B------8-8--x-x--7-7--------5-5--x-x---5--5---------------------
G------0-0--x-x--7-7--------4-4--x-x---x--x---------------------
D------9-9--x-x--5-5-----5--5-5--x-x---5--5---------------------
A---7--7-7--x-x--7-7---3----3-3--x-x---3--3---------------------
E-0---------x-x--x-x-------------x-x---5--5---------------------

pre-chorus (these are played a different way to the chorus, so listen to it)
                                                                   
e----0--0--0--0---0--0--0---0--0---0--0--0---0--0--0--0---
B----5--5--5--5---2--2--2---0--3---3--3--3---2--2--2--2---
G----4--4--4--4---0--0--0---0--0---0--0--0---2--2--2--2---
D----5--5--5--5---2--2--2---2--2---2--2--2---2--2--2--2---
A----3--3--3--3---0--0--0---0--3---3--3--3---0--0--0--0---
E---------------------------------------------------------
[ Tab from: http://www.guitartabs.cc/tabs/i/incubus/drive_live_tab.html ]
then the solo, play along with the song an you will see how easy this tab makes it
just play the slides and hammers as single notes if it is too complicated  

e-----------7--5--3--5------------------------------------
B-3/5--5-5-------------3h5--3--5/7--5b---5-------5--------
G------------------------------------------7/9b----7/9b---
D---------------------------------------------------------
A---------------------------------------------------------
E---------------------------------------------------------

e--3--5---7-7--5---10---7---5---7-------------------------
B-----------------------------------5--3--3----5--5--3----
G----------------------------------------------------4----
D---------------------------------------------------------
A---------------------------------------------------------
E---------------------------------------------------------


e-----5--5---3--3-0---------------------------------------
B------------------------5---3----------------------------
G-----------------------------------4---2---2h4--2---4b---
D---------------------------------------------------------
A---------------------------------------------------------
E---------------------------------------------------------

Thats it, email me, pnoy@hotmail.com if u want to say anything about the tab
Comments