Incubus - Drive Live Chords & Tabs

 

Drive Live Chords & Tabs

Incubus Chords & Tabs

Version: 1 Type: Bass Tab 0 ratings
1 star 2 stars 3 stars 4 stars 5 stars
comments

Drive Live Bass Tab

Song: Drive (Live)
Band: Incubus
Album: ANY Live Bootleg Album (2004)
Bassist: Ben Kenney's Version (not Dirk's)
Tabber: Incubus SCIENCE

Well here it is for the first time on U-G...
The chorus is different in Dirk's version... this is Ben's version...
Intro/Chorus/During Solo

G|-------------------7----7-------------9---9------------------------|
D|-----------5---5-5---5--------5---5/7---7--------------------------|
A|-------7-7---7------------3-3---3----------------------------------|
E|-------------------------------------------------------------------|

Verse
[ Tab from: http://www.guitartabs.cc/tabs/i/incubus/drive_live_btab.html ]
G|-------------------------------------------------------------------|
D|-----------------------5-5-5-5-----------------------7-7-7-7-------|
A|-----7-7-7-7-7-7-7-----------------3-3-3-3-3-3-3-3-----------------|
E|-------------------------------------------------------------------|

Bridge

G|------------4-----4---4/6---6----6----6------6---------------------|
D|--------5---------5---5/7---7----7----7----------7-----------------|
A|----3--------------------------------------------------------------|
E|-------------------------------------------------------------------|

ENJOY INCUBUS!
Contact:
AIM- overlookdbass
e-mail- detroitgrandpubahs@yahoo.com
Comments