Incubus - Drive Chords & Tabs

 

Drive Chords & Tabs

Incubus Chords & Tabs

Version: 2 Type: Bass Tab 0 ratings
1 star 2 stars 3 stars 4 stars 5 stars
comments

Drive Bass Tab

Incubus - Drive
From "Make Yourself"
Transcribed by Maxwell Jackal (maxwelljackal@hotmail.com)
This is my version of the famous song, so it may not be right, 
but it flows very nicely! :) There are alot of variations in 
this song, I've just provided the framework. Enjoy!

Intro/Chorus
G|------------------------------------|
D|------------------------------------|
A|--00-5-5-3p2-3-33--00-3-3-2p1-2-22--|
E|------------------------------------|

Verse
G|-----------------|
D|-----------------|
A|------3---3------|
E|--0-3-------3-0--|

the part right before the Chorus
G|----------------------|
D|----------------------|
A|--333-------333--555--|
E|-------333------------|
[ Tab from: http://www.guitartabs.cc/tabs/i/incubus/drive_btab_ver_2.html ]
G|----------------------------|
D|----------------------------|
A|--333-------333--55--5/7-7--|
E|-------333------------------|

Bridge
(this is an alternative bridge I made up, I like it better 
than the traditional chorus riff being played here instead.
I usually pop the strings to make it sound jazzy ^_^)
G|--------------------------------|
D|--------------------------------|
A|--------------------------------|
E|--00-3-3-0h3-5----00-3-3-0h3-5--|

G|--------------------------------|
D|--------------------------------|
A|--------------------------------|
E|--00-3-3-0h3-5----00-3-3-0h3-0--|

the part before the last chorus
G|----------------------------|
D|-----------------------77-7-|
A|--333-------333--333-R------|
E|-------333------------------|

Dontcha just love easy songs?
Comments