Incubus - Drive Acoustic Chords & Tabs

 

Drive Acoustic Chords & Tabs

Incubus Chords & Tabs

Version: 6 Type: Tab 0 ratings
1 star 2 stars 3 stars 4 stars 5 stars
comments

Drive Acoustic Tab

   
--------------------------------------------------------------------------
			     Drive (acoustic) - Incubus
--------------------------------------------------------------------------
Tabbed by:Rob De'Giovanni
Email:robsg0202@hotmail.com

Tuning:standard

this is an ace song! 

Enjoy and please rate!   

Intro 
e|-----0-0---x-----------------------0-0---x-------------------------------|
B|-----8-8-8-x---7-----5-5---5-------8-8-8-x---7-----5-5---5---------------|
G|-----0-0-0-x---7-----4-4---4-------0-0-0-x---7-----4-4---4---------------|
D|-----9-9-9-x---5---5-5-5---5-------9-9-9-x---5---5-5-5---5---------------|
A|---7-7-----x7-7--3------5-------7-7-----x-7-7--3------------------------|
E|--0--------x--------------------0--------x-------------5-----------------|

Verse:1

e|-----0-0---x-----------------------0-0---x-------------------------------|
B|-----8-8-8-x---7-----5-5---5-------8-8-8-x---7-----5-5---5---------------|
G|-----0-0-0-x---7-----4-4---4-------0-0-0-x---7-----4-4---4---------------|
D|-----9-9-9-x---5---5-5-5---5-------9-9-9-x---5---5-5-5---5---------------|
A|---7-7-----x7-7--3------5-------7-7-----x-7-7--3------------------------|
E|--0--------x--------------------0--------x-------------5-----------------|
        Sometimes     I ........  uncertainty stinging clear

e|-----0-0---x-------------------------0-0---x-----------------------------|
B|-----8-8-8-x---7-----5-5---5---------8-8-8-x---7-----5-5---5-------------|
G|-----0-0-0-x---7-----4-4---4---------0-0-0-x---7-----4-4---4-------------|
D|-----9-9-9-x---5---5-5-5---5---------9-9-9-x---5---5-5-5---5-------------|
A|---7-7-----x7-7--3------5---------7-7-----x-7-7--3----------------------|
E|--0--------x--------------------- 0--------x-------------5---------------|
      And I ...        help............       let the fear    take.. steer  


e|---------------0--0--0-----0----------0----------------------------------|
B|-5---5--5-5----0--2--2--2--2-0h20h2-2----------------------------------|
G|-4---4--4-4----0--0--0--0--0--0---0---0----------------------------------|
D|-5---5--5-5----0--2--2--2--2--2---2---2----------------------------------|
A|-3---3--3-3--------------------------------------------------------------|
E|-------------------------------------------------------------------------|
           Its ... before and it seems to have a  

e|---------------0--0--0-----0----------0----------------------------------|
B|-5---5--5-5----0--2--2--2--2-0h2-0h2-2----------------------------------|
G|-4---4--4-4----0--0--0--0--0--0---0---0----------------------------------|
D|-5---5--5-5----0--2--2--2--2--2---2---2----------------------------------|
A|-3---3--3-3--------------------------------------------------------------|
E|-------------------------------------------------------------------------|
    vague            haunting mass appeal     

e|---------------0--0--0-----0----------0----------------------------------|
B|-5---5--5-5----0--2--2--2--2-0h20h2-2----------------------------------|
G|-4---4--4-4----0--0--0--0--0--0---0---0----------------------------------|
D|-5---5--5-5----0--2--2--2--2--2---2---2----------------------------------|
A|-3---3--3-3--------------------------------------------------------------|
E|-------------------------------------------------------------------------|
           But ... I'm   beginning to find that 

e|---------------0-----0-----0----------0----------------------------------|
B|-5---5--5-5----0-----2-----2-0h20h2-2----------------------------------|
G|-4---4--4-4----0-----0-----0--0---0---0----------------------------------|
D|-5---5--5-5----0-----2----2--2---2---2----------------------------------|
A|-3---3--3-3--------------------------------------------------------------|
E|-------------------------------------------------------------------------|
    I               Should be the one behind the wheel 



Chorus
e|-----0-0---x-----------------------0-0---x-------------------------------|
B|-----8-8-8-x---7-----5-5---5-------8-8-8-x---7-----5-5---5---------------|
G|-----0-0-0-x---7-----4-4---4-------0-0-0-x---7-----4-4---4---------------|
D|-----9-9-9-x---5---5-5-5---5-------9-9-9-x---5---5-5-5---5---------------|
A|---7-7-----x7-7--3------5-------7-7-----x-7-7--3------------------------|
E|--0--------x--------------------0--------x-------------5-----------------|
       Whatever ....     brings I'll be there...  arms   eyes yeah 

e|-----0-0---x-----------------------0-0---x-------------------------------|
B|-----8-8-8-x---7-----5-5---5-------8-8-8-x---7-----5-5---5---------------|
G|-----0-0-0-x---7-----4-4---4-------0-0-0-x---7-----4-4---4---------------|
D|-----9-9-9-x---5---5-5-5---5-------9-9-9-x---5---5-5-5---5---------------|
A|---7-7-----x7-7--3------5-------7-7-----x-7-7--3------------------------|
E|--0--------x--------------------0--------x-------------5-----------------|
       Whatever......     brings I'll be there  I'll be there


Verse 2

e|-----0-0---x-----------------------0-0---x-------------------------------|
B|-----8-8-8-x---7-----5-5---5-------8-8-8-x---7-----5-5---5---------------|
G|-----0-0-0-x---7-----4-4---4-------0-0-0-x---7-----4-4---4---------------|
D|-----9-9-9-x---5---5-5-5---5-------9-9-9-x---5---5-5-5---5---------------|
A|---7-7-----x7-7--3------5-------7-7-----x-7-7--3------------------------|
E|--0--------x--------------------0--------x-------------5-----------------|
       So If I.........    waver my...     to be one of  the hive 

e|-----0-0---x-----------------------0-0---x-------------------------------|
B|-----8-8-8-x---7-----5-5---5-------8-8-8-x---7-----5-5---5---------------|
G|-----0-0-0-x---7-----4-4---4-------0-0-0-x---7-----4-4---4---------------|
D|-----9-9-9-x---5---5-5-5---5-------9-9-9-x---5---5-5-5---5---------------|
A|---7-7-----x7-7--3------5-------7-7-----x-7-7--3------------------------|
E|--0--------x--------------------0--------x-------------5-----------------|
      Would    I .....    wine and hold my ...drive

e|---------------0--0--0--0--0----------0----------------------------------|
B|-5---5--5-5----0--2--2--2--2-0h20h2-2----------------------------------|
G|-4---4--4-4----0--0--0--0--0--0---0---0----------------------------------|
D|-5---5--5-5----0--2--2--2--2--2---2---2----------------------------------|
A|-3---3--3-3--------------------------------------------------------------|
E|-------------------------------------------------------------------------|
           Its ... before and it seems to be the  

e|---------------0--0--0--0--0----------0----------------------------------|
B|-5---5--5-5----0--2--2--2--2-0h2-0h2-2----------------------------------|
G|-4---4--4-4----0--0--0--0--0--0---0---0----------------------------------|
D|-5---5--5-5----0--2--2--2--2--2---2---2----------------------------------|
A|-3---3--3-3--------------------------------------------------------------|
E|-------------------------------------------------------------------------|
    way           that everyone else gets around     
[ Tab from: http://www.guitartabs.cc/tabs/i/incubus/drive_acoustic_tab_ver_6.html ]
e|---------------0--0--0--0--0----------0----------------------------------|
B|-5---5--5-5----0--2--2--2--2-0h20h2-2----------------------------------|
G|-4---4--4-4----0--0--0--0--0--0---0---0----------------------------------|
D|-5---5--5-5----0--2--2--2--2--2---2---2----------------------------------|
A|-3---3--3-3--------------------------------------------------------------|
E|-------------------------------------------------------------------------|
          But lately...      beginning to find that 

e|---------------0-----0-----0----------0----------------------------------|
B|-5---5--5-5----0-----2-----2-0h20h2-2----------------------------------|
G|-4---4--4-4----0-----0-----0--0---0---0----------------------------------|
D|-5---5--5-5----0-----2----2--2---2---2----------------------------------|
A|-3---3--3-3--------------------------------------------------------------|
E|-------------------------------------------------------------------------|
    When I drive        myself   my light is found


Chorus
e|-----0-0---x-----------------------0-0---x-------------------------------|
B|-----8-8-8-x---7-----5-5---5-------8-8-8-x---7-----5-5---5---------------|
G|-----0-0-0-x---7-----4-4---4-------0-0-0-x---7-----4-4---4---------------|
D|-----9-9-9-x---5---5-5-5---5-------9-9-9-x---5---5-5-5---5---------------|
A|---7-7-----x7-7--3------5-------7-7-----x-7-7--3------------------------|
E|--0--------x--------------------0--------x-------------5-----------------|
       Whatever     ...  brings I'll be there    arms...eyes yeah 



e|-----0-0---x-----------------------0-0---x-------------------------------|
B|-----8-8-8-x---7-----5-5---5-------8-8-8-x---7-----5-5---5---------------|
G|-----0-0-0-x---7-----4-4---4-------0-0-0-x---7-----4-4---4---------------|
D|-----9-9-9-x---5---5-5-5---5-------9-9-9-x---5---5-5-5---5---------------|
A|---7-7-----x7-7--3------5-------7-7-----x-7-7--3------------------------|
E|--0--------x--------------------0--------x-------------5-----------------|
       Whatever     ....  brings I'll be there    I'll be there


Solo:  it's the same guitar playing but if you listen the solo actually comes in whilst the chorus is 
Still being played, I guess this first bar is optional but I tabbed it just so you know its there


e|-------------------------------------------------------------------------|
B|-------------------------------------------------------------------------|
G|------------------------------------------------------9--9--9------------|
D|-------------------------------------------------------------------------|
A|-------------------------------------------------------------------------|
E|-------------------------------------------------------------------------|

e|--------------------------------------------------------10---------------|
B|----12-10s8~--10----------------------8s10 10-12-12-10---12-10-12-------|
G|-9~---------------7-9-9-7--9-9--9-9--------------------------------9s7-7-|
D|-------------------------------------------------------------------------|
A|-------------------------------------------------------------------------|
E|-------------------------------------------------------------------------|

e|-------------------------------------------------------------------------|
B|--------10-10-8-8--------------------------------------------------------|
G|-9-9-7------------9-9-7--------------------------------------------------|
D|------------------------9s7-7s9------------------------------------------|
A|-------------------------------------------------------------------------|
E|-------------------------------------------------------------------------|

 
e|----------0--0---0---0-------------0------------------------------------| 
B|----------2--2---2---2----0h20h2--2-------------------------------------|
G|----------0--0---0---0----0----0---0-------------------------------------|
D|----------2--2---2---2----2----2---2-------------------------------------|
A|-------------------------------------------------------------------------|
E|-------------------------------------------------------------------------|
    Would you choose           water over
e|---------------0-----0----------------0----------------------------------|
B|-5---5--5-5----0-----2----------------2----------------------------------|
G|-4---4--4-4----0-----0----------------0----------------------------------|
D|-5---5--5-5----0-----2---------------2----------------------------------|
A|-3---3--3-3--------------------------------------------------------------|
E|-------------------------------------------------------------------------|
    wine              hold the wheel and drive


Chorus
e|-----0-0---x-----------------------0-0---x-------------------------------|
B|-----8-8-8-x---7-----5-5---5-------8-8-8-x---7-----5-5---5---------------|
G|-----0-0-0-x---7-----4-4---4-------0-0-0-x---7-----4-4---4---------------|
D|-----9-9-9-x---5---5-5-5---5-------9-9-9-x---5---5-5-5---5---------------|
A|---7-7-----x7-7--3------5-------7-7-----x-7-7--3------------------------|
E|--0--------x--------------------0--------x-------------5-----------------|
       Whatever     ....  brings I'll be there... arms   eyes yeah 


e|-----0-0---x-----------------------0-0---x-------------------------------|
B|-----8-8-8-x---7-----5-5---5-------8-8-8-x---7-----5-5---5---------------|
G|-----0-0-0-x---7-----4-4---4-------0-0-0-x---7-----4-4---4---------------|
D|-----9-9-9-x---5---5-5-5---5-------9-9-9-x---5---5-5-5---5---------------|
A|---7-7-----x7-7--3------5-------7-7-----x-7-7--3------------------------|
E|--0--------x--------------------0--------x-------------5-----------------|
       Whatever     ..... brings I'll be there   I'll be there


outro
e|-----0-0---x-----------------------0-0---x-------------------------------|
B|-----8-8-8-x---7-----5-5---5-------8-8-8-x---7-----5-5---5---------------|
G|-----0-0-0-x---7-----4-4---4-------0-0-0-x---7-----4-4---4---------------|
D|-----9-9-9-x---5---5-5-5---5-------9-9-9-x---5---5-5-5---5---------------|
A|---7-7-----x7-7--3------5-------7-7-----x-7-7--3------------------------|
E|--0--------x--------------------0--------x-------------5-----------------|
               


e|-----0-0---x-----------------------0-0---x-------------------------------|
B|-----8-8-8-x---7-----5-5---5-------8-8-8-x---7-----5-5---5---------------|
G|-----0-0-0-x---7-----4-4---4-------0-0-0-x---7-----4-4---4---------------|
D|-----9-9-9-x---5---5-5-5---5-------9-9-9-x---5---5-5-5---5---------------|
A|---7-7-----x7-7--3------5-------7-7-----x-7-7--3------------------------|
E|--0--------x--------------------0--------x-------------5-----------------|
       

e|---------------0-----0---------------------------------------------------|
B|-5---5--5-5----0-----2---------------------------------------------------|
G|-4---4--4-4----0-----0---------------------------------------------------|
D|-5---5--5-5----0-----2--------------------------------------------------|
A|-3---3--3-3--------------------------------------------------------------|
E|-------------------------------------------------------------------------|

| /  slide up
| \  slide down
| h  hammer-on
| p  pull-off
| ~  vibrato
| +  harmonic
| x  Mute note
===================================================================
Comments