Incubus - Drive Acoustic Chords & Tabs

 

Drive Acoustic Chords & Tabs

Incubus Chords & Tabs

Version: 5 Type: Tab 0 ratings
1 star 2 stars 3 stars 4 stars 5 stars
comments

Drive Acoustic Tab

Inubus-Drive

Reg. Tuning : EBDGAE

|------0-0-0-------------0-0-0---x-x-x-|
|------8-8-8-------------5-5-5---5-5-5-|
|------0-0-0---7-7-7-----4-4-4---x-x-x-| you can figure out the 
|---9--9-9-9---7-7-7-----5-5-5---5-5-5-|stumming patterns on your own
|------7-7-7-7-5-5-5-5-3-3-3-3---x-x-x-|
|-0----0-0-0-------------------5-5-5-5-|

Chorus:
[ Tab from: http://www.guitartabs.cc/tabs/i/incubus/drive_acoustic_tab_ver_5.html ]
|-0-0-0-0----------|
|-5-5-5-5--2-2-3-2-|  repeat over and over.   agian figue out the 
|-4-4-4-4--0-0-0-0-|  strumming pattern.
|-5-5-5-5--2-2-2-2-|
|-3-3-3-3----------|
|-0-0-0-0----------|

|-0-7-5-3-0---0-0------0---0-3-5-7-5-10-7-5-7-0----0--|
|-----------3-----3--5---5----------------------3-5-3-|
|-----------------------------------------------------|
|-----------------------------------------------------|
|-----------------------------------------------------|
|-----------------------------------------------------|

|7-7-5-5-3-3--0---------|
|------------5--3-------|
|-----------------4-2-4-|
|-----------------------|
|-----------------------|
|-----------------------|
Comments