Incubus - Drive Acoustic Chords & Tabs

 

Drive Acoustic Chords & Tabs

Incubus Chords & Tabs

Version: 4 Type: Tab 0 ratings
1 star 2 stars 3 stars 4 stars 5 stars
comments

Drive Acoustic Tab

incubus
drive
make yourself

all of the other tabs for the acoustic part just seemed wrong, so i went and listened to the song and figured this out. i hope its right. it really does sound right to me. you can e-mail me at lburd98@aol.com if you have a better version
[ Tab from: http://www.guitartabs.cc/tabs/i/incubus/drive_acoustic_tab_ver_4.html ]
intro,verse,chorus
------555---5-------000---0------
------555---5-------000---0------
------555---5-------333---3------
------777--------4--444-4--------
---7------7----2-----------------
-5-------------------------------

pre-chorus
---55555-----00000----        play intro,verse,chorus thru
---55555-----00000----        solo
---55555-----33333----
---77777-----44444----
-7---------2----------
----------------------
Comments