Incubus - Drive Acoustic Chords & Tabs

 

Drive Acoustic Chords & Tabs

Incubus Chords & Tabs

Version: 3 Type: Tab 0 ratings
1 star 2 stars 3 stars 4 stars 5 stars
comments

Drive Acoustic Tab

#----------------------------------PLEASE NOTE---------------------------------#
#This file is the author's own work and represents their interpretation of the #
#song. You may only use this file for private study, scholarship, or research. #
#------------------------------------------------------------------------------##

artist:incubus
song:Drive (acoustic)
album:make yourself
tabbed by:Lynnette Elad
email:txangirl@hotmail.com

intro/verse/chorus
(it's not exactly how many times you strum each chord so you might have to
elaborate a bit on this)

E|-----33-3-3---2-------------0----33-3-3---2------------0---  
B|-----00-0-0---3---0-00------0----00-0-0---3---0--00----0---
G|-----00-0-0---0---0-00------0----00-0-0---0---0--00----0---     
D|-----00-0-0-------0-00-2-222-----00-0-0-------0--00-2-22--       
A|---2------------3---------------2-----------3--------------                                 
E|0-----------------------------0----------------------------
[ Tab from: http://www.guitartabs.cc/tabs/i/incubus/drive_acoustic_tab_ver_3.html ]
bridge
(listen to the song to see how long you strum this)
E|--------------------------------------------------
B|-3----------------2-----------------------3-------
G|-0----------------0------------------0----0-------
D|-2----------------2------------------2----2-------
A|-3----------------0------------------3----3-------
E|--------------------------------------------------
  
  
E|-------------------------------------------------------------------
B|-3------------2------------------------------------------------3---
G|-0------------0--------------------------0---------------------0---
D|-2------------2--------------------------2---------------------2---
A|-3------------0--------------------------3---------------------3---
E|-------------------------------------------------------------------


solo

E|------7-5-3-5----------------------3-5-77-5-10-7-5-7---------------5-5-3----------                 
B|--5555-------3-3h5-3h5-3h5-3h5-3h5------------------5-355h3-3h5-3h5-----5-3-------
G|---------------------------------------------------------------------------4-22-4-
D|----------------------------------------------------------------------------------
A|----------------------------------------------------------------------------------
E|----------------------------------------------------------------------------------
                                                                     
intro
verse
bridge
chorus
verse                                                                                                                                                       
bridge
chorus
solo
bridge
chorus

ending
e|-----------
B|--0-0-00--2
G|--0-0-00--0
D|--2-2-22--2
A|--3-3-33--0
Comments