Incubus - Deep Inside Chords & Tabs

 

Deep Inside Chords & Tabs

Incubus Chords & Tabs

Version: 6 Type: Tab 0 ratings
1 star 2 stars 3 stars 4 stars 5 stars
comments

Deep Inside Tab

   
Incubus- Deep Inside

-Well, another one from my archive of tabs. Enjoy dudes!

Standard tuning: EADGBe

Intro:
======
e|-10-10-10101010|
B|--9--9--9-9-9-9|
G|-10-10-10101010|
D|---------------|
A|---------------|
E|---------------|

e|7-7-7----------------7-7-7--------------7-7-7----------------7-7-7---
B|7-7-7----------------7-7-7--------------7-7-7----------------7-7-7---
G|77-7--9-7--9-9-7-7--7-7-7---7---7------7-7-7--9-7--9-9-7-7--7-7-7---
D|---------------------------9---9---9-7-------------------------------
A|---------------------------------------------------------------------
E|---------------------------------------------------------------------

e|7-7-7------10-10|
B|7-7-7-------9-9|
G|77-7----7-10-10|
D|-------9--------|
A|----------------|
E|----------------|

e|7-7-7----------------7-7-7--------------7-7-7------------------------
B|7-7-7----------------7-7-7--------------7-7-7------------------------
G|77-7--9-7--9-9-7-7--7-7-7---7---7------7-7-7--9-7--9-9-7-7----------
D|---------------------------9---9---9-7-------------------------------
A|---------------------------------------------------------------------
E|---------------------------------------------------------------------

e|----------------|
B|----------------|
G|-7/9-7----------|
D|-------7/9-7-7--|
A|----------------|
E|----------------|

Verse:
======
e|------------------------------------------16-16-16161616-------------
B|------------------------------------------15-15-15151515-------------
G|-7------------7------------7--------------16-16-15151515-------------
D|--9-9-9-9-9----9-9-9-9-9-----9-9-9-9-9-------------------------------
A|---------------------------------------------------------------------
E|---------------------------------------------------------------------

e|------------77-----------7xx77-------------7xx7x7x7x77--------------|
B|------------77------------xx77-------------7xx7x7x7x77--------------|
G|-7----------77--7---------xx77--7----------7xx7x7x7x77--------------|
D|--9-9-9-9-9------9-9-9-9---------9-9-9-9----------------------------|
A|--------------------------------------------------------------------|
E|--------------------------------------------------------------------|

Pre-chorus:
===========
(All triads, not POWER Chords!) E C# A A#
e|--------------------------------------------------------------------|
B|--------------------------------------------------------------------|
G|-99999999-66666666--------------------------------------------------|
D|-99999999-66666666-77777777-88888888--------------------------------|
A|-77777777-44444444-77777777-88888888--------------------------------|
E|-------------------55555555-66666666--------------------------------|

Chorus:
=======
This is the same as the intro.

Post-chorus:
============
e|---------------------------------------------------------------------
B|---------------------------------------------------------------------
G|-7-7-6~-6-6--5-5-------------7~~----7/9-9-8-8-8-7-7-6-6-6-5-5--------
D|-----------------8~-8-8--7-7----8~---------------------------8--8-8-8
A|---------------------------------------------------------------------
E|---------------------------------------------------------------------

E|--------------------------7-7/--------------------------------------|
B|--------------------------7-7/--------------------------------------|
G|-10-7---------------------7-7/--------------------------------------|
D|------9-----7~-9-9-7------------------------------------------------|
A|--------7-9---9-----------------------------------------------------|
E|--------------------------------------------------------------------|

Verse: (There's a variation here that's easy to figure out)
======
Pre-chorus: Same.
===========
Chorus: Instead of e|----------------|
=======		   B|----------------|
                   G|-7/9-7----------|
                   D|-------7/9-7-7--|
                   A|----------------|
		   E|----------------|
		   
	  Do       e|----------------|
                   B|----------------|
                   G|-7/9-7-----7----|
                   D|-------9-9-7/--|
                   A|----------------|
		   E|----------------|

Bridge:
=======
e|---------------------------------------------------------------------
B|---------------------------------------------------------------------
G|-6~/-6h7-6~/-6h7-6~/-6h7-6---99--99---99-99---6~/-6h7-6~/-6-6h7-6h7-
D|---------------------------77--77--77---77--77-----------------------
A|---------------------------------------------------------------------
E|---------------------------------------------------------------------

e|---------------------------------------------------------------------
B|---------------------------------------------------------------------
G|-6~/----99--99---99-99----9/11-9----9-------------------------------
D|------77--77--77---77--77---------12---12~---------------------------
A|---------------------------------------------------------------------
E|---------------------------------------------------------------------
e|---------------------------------------------------------------------
[ Tab from: http://www.guitartabs.cc/tabs/i/incubus/deep_inside_tab_ver_6.html ]
e|-------------------------------------10------------------7-8-9-10-11|
B|----------10-10--------------8-8-------8---------7-8-9-10-----------|
G|----6-6h7-------7/-----4-4h5-----5/7-----7-8-9-10-------------------|
D|9-9----------------7-7----------------------------------------------|
A|--------------------------------------------------------------------|
E|--------------------------------------------------------------------|

e|-12~-12----12-12-----12----12-----12-12-13-13-15-15-17-20~~---------|
B|-------10-------10-----10----10-------------------------------------|
G|---------9--------9-9----9-----9------------------------------------|
D|--------------------------------------------------------------------|
A|--------------------------------------------------------------------|
E|--------------------------------------------------------------------|

Verse:
======
e|---------------------------------------------------------------------
B|-15-14-14-14-14-14/---14---------------------15-14-14-14-14-14/------
G|------------------------14-14-14-14-14-14/---------------------------
D|---------------------------------------------------------------------
A|---------------------------------------------------------------------
E|---------------------------------------------------------------------

e|---------------------------------------------------------------------
B|-14------------------------17-17---15-14-14-14-14-1417-17-----------
G|---14-14-14-14-14-14--14-14-------------------------------14---------
D|---------------------------------------------------------------------
A|---------------------------------------------------------------------
E|---------------------------------------------------------------------


e|------------------------------|
B|-15-14-14--14---------17-17---|
G|-------------14--14-14-----14-|
D|------------------------------|And so on and so forth..................
A|------------------------------|
E|------------------------------|

Before the solo:
================
Do the triads of Ab (7 strums) and D# (1strum) four times, then the pre-chorus after. Hang in A#.

Solo:
=====

e|--------------------------------------------------------------------|
B|--------------------------------------------------------------------|
G|-11~-9b11r9~-9/7---7h9-7--------------7h9/11-9/7-7-7-5---3-5-3-5-5-3|
D|-----------------9-------9-7-9--12p9--------------------------------|
A|--------------------------------------------------------------------|
E|--------------------------------------------------------------------|

e|-10-9----------------9-10-9----------------9-10-10-9-9-12-12-9------|
B|------10----------10---------10----------10-------------------------|
G|----------11-8-11---------------11-8-11-----------------------------|
D|--------------------------------------------------------------------|
A|--------------------------------------------------------------------|
E|--------------------------------------------------------------------|

e|-10-9------------9-10-10/12-10h12-9-10p9----------------------------|
B|-----10-------10------------------------10/1210h12-9-10------------|
G|-------11-8-11------------------------------------------7--9p7-9/11-|
D|--------------------------------------------------------------------|
A|--------------------------------------------------------------------|
E|--------------------------------------------------------------------|

e|--12p9--12-12p912p9--12-12p9-12/15-15-15-15-15--------13-13--------|
B|-9----9--------9----9----------------------------14-14-------12-12--|
G|--------------------------------------------------------------------|
D|--------------------------------------------------------------------|
A|--------------------------------------------------------------------|
E|--------------------------------------------------------------------|

e|-11-11--------9/----------------------------------------------------|
B|--------10-10-----7-9b10r9---9p7------------------------------------|
G|--------------------------------9p7-11p9-11-9b10r9-7-9b10r9-7-7-----|
D|----------------------------------------------------------------9---|
A|--------------------------------------------------------------------|
E|--------------------------------------------------------------------|

e|-12p9-12-12/15------------------12p9-12-12/15-----------------------|
B|-----9--------15--15-15-17-17-15----9--------15--15-15-17-17-15-----|
G|--------------------------------------------------------------------|
D|--------------------------------------------------------------------|
A|--------------------------------------------------------------------|
E|--------------------------------------------------------------------|

e|--------------------------------------------------------------------|
B|-13-15-13-----------------------------------------------------------|
G|----------14-13-14b15r14-13-14-13---14b15r14--7-7-9-7-9/11-7-9-----|
D|---------------------------------15---------------------------------|
A|--------------------------------------------------------------------|
E|--------------------------------------------------------------------|

E|--------------------------7-7/--------------------------------------|
B|--------------------------7-7/--------------------------------------|
G|-10-7---------------------7-7/--------------------------------------|
D|------9-----7~-9-9-7------------------------------------------------|
A|--------7-9---9-----------------------------------------------------|
E|--------------------------------------------------------------------|

That's it!

E-mail me at ifyhard2@yahoo.com for comments, suggestions, or whatever, really! = )

-Ifyhard
Comments