Incubus - Deep Inside Chords & Tabs

 

Deep Inside Chords & Tabs

Incubus Chords & Tabs

Version: 5 Type: Tab 0 ratings
1 star 2 stars 3 stars 4 stars 5 stars
comments

Deep Inside Tab

Band:incubus
Song:Deep inside

Tabber: Wrath_014

Intro: (clean guitar)

E||-----------------------------19--------10-10-10-10-10-10|
B||--------------9------------------------9--9--9--9--9--9-|
G||--------------7-----------------16----------------------|
D||--------------------------------------------------------|
A||--------------------------------------------------------|
E||--------------------------------------------------------|
                                                      
E||------7--------------------------7-------------------|
B||------7--------------------------7-------------------|
G||------7----9--7--7-9-9--x--------7-------7----7-7--x-|
D||--9--------------------------9--------9-----9--------|
A||-----------------------------------------------------|
E||-----------------------------------------------------|
                                                         
E||------7---------------------------7---------------------|
B||------7---------------------------7------------10-10----|
G||------7----9--7--7-9-9-7-x--------7----9--7--7-7--7---x-|
D||--9---------------------------9-------------------------|
A||--------------------------------------------------------|
E||--------------------------------------------------------|
                                                   
E||------7-------------------------7-------------------|
B||------7-------------------------7-------------------|
G||------7----9--7--7-9-9--x-------7-------7----7-7--x-|
D||--9-------------------------9--------9-----9-9------|
A||----------------------------------------------------|
E||----------------------------------------------------|
                                                           
E||------7------------------------12---10-------------------|
B||------7------------------------x----x----12---10--10-10--|
G||------7----9--7--7-9-9-7-x-----9----7----x----x---x--x---|
D||--9--------------------------------------9----7---7--7---|
A||---------------------------------------------------------|
E||---------------------------------------------------------|

Veres:

E||-----------------------------------------------------------------------|
B||-----------------------------------------------------------------------|
G||--7-----------------------7----------------------7---------------------|
D||----9--9--9--9--9-----------9--9--9--9--9----------9--9--9--9--9-------|
A||-----------------------------------------------------------------------|
E||-----------------------------------------------------------------------|
                                                              
E||----16---16---16-16-16-16---------------------------7--7----|
B||----15---15---15-15-15-15---------------------10----10-10---|
G||--------------------------------7-------------7---x-7--7----|
D||----------------------------------9--9--9--9----------------|
A||------------------------------------------------------------|
E||------------------------------------------------------------|

E||----------------------7--7--------------------------7--7----|
B||----------------10----10-10-------------------10----10-10---|
G||--7-------------7---x-7--7------7-------------7---x-7--7----|
D||----9--9--9--9--------------------9--9--9--9----------------|
A||------------------------------------------------------------|
E||------------------------------------------------------------|

Pre Chorus:
E||--------------------------------------|
B||--------------------------------------|
G||9-6-2-3-------------------------------|
D||9-6-2-3-------------------------------|
A||7-4-0-1-------------------------------|
E||7-4-0-1-------------------------------|

Chorus:

E||--------------------------------------------------------------|
B||7--7--7--7-7-7-7----5--5--5--5--5-5-5--3---3---3---3--3-3--4--|
G||7--7--6--6-6-6-6----5--5--4--4--4-4-4--3---3---2---2--2-2--3--|
D||5--5--5--5-5-5-5----3--3--3--3--3-3-3--1---1---1---1--1-1--2--|
A||--------------------------------------------------------------|
E||--------------------------------------------------------------|
                                                                          
E||--------------------------------------------------------------|
B||-4---4---4----9---9---9---9--9-9-9-----7---7---7---7--7-7-7---|
G||-3---3---3----9---9---8---8--8-8-8-----7---7---6---6--6-6-6---|
D||-2---2---2----7---7---7---7--7-7-7-----5---5---5---5--5-5-5---|
A||--------------------------------------------------------------|
E||--------------------------------------------------------------|
                                                                           
E||-------------------------------------------------------|
B||--5---5---5---5--5-5-5---------------------------------|
G||--5---5---4---4--4-4-4------10-7-----------------------|
D||--3---3---3---3--3-3-3------------9--------7----9-9-7--|
A||-------------------------------------7--9-----9--------|
E||-------------------------------------------------------|

Solo 1:
E||------------------------------------------------------|
B||------------------------------------------------------|
G||--6/---2--------7---x--6\2---7x--6--9-9---9-9---9-9---|
D||----------------------------------7-----7-----7-----7-|
A||------------------------------------------------------|
E||------------------------------------------------------|
[ Tab from: http://www.guitartabs.cc/tabs/i/incubus/deep_inside_tab_ver_5.html ]
E||----------------------------------------------------------------------|
B||----------------------------------------------------------------------|
G||--6/---2-----7---x---6/---2----6--6h7-0-6h7----6/---2--7--9-9----9-9--|
D||--------------------------------------------------------------7------7|
A||----------------------------------------------------------------------|
E||----------------------------------------------------------------------|
                                                                    
E||---------------------------------------------------------|
B||-----------------------------------------------10-10-----|
G||--9/11--7--9--7~-----------------------------------------|
D||----------------------------9---11---12----12--------12/-|
A||---------------------------------------------------------|
E||---------------------------------------------------------|
                                                                      
E||--------------------------------10---------------------7-8-9-10-11--|
B||----------------------8-8----------8----------7-8-9-10--------------|
G||-------------------------------------7-8-9-10-----------------------|
D||--7---9---10----10-10-----10/---------------------------------------|
A||--------------------------------------------------------------------|
E||--------------------------------------------------------------------|
                                             
E||--12----12-------12-12-----12---12----12-12-13-13-15-15-17-17-20----|
B||-----------10----------10----10---10--------------------------------|
G||--------------9-----------9----9----9-------------------------------|
D||--------------------------------------------------------------------|
A||--------------------------------------------------------------------|
E||--------------------------------------------------------------------|

Veres 2 : (afther solo)
E||--10-9--9--9--9--9/-9----------------10-9-9-9-9-9----|
B||----------------------10-10-10-10-10-----------------|
G||-----------------------------------------------------|
D||-----------------------------------------------------|
A||-----------------------------------------------------|
E||-----------------------------------------------------|    

E||--10-9-----10-9---------12-12-------10-9-------10-9---------12-12-----|
B||-----------------10--10-------10---------10----------10--10-------10--|
G||----------------------------------------------------------------------|
D||----------------------------------------------------------------------|
A||----------------------------------------------------------------------|
E||----------------------------------------------------------------------|

E||--10-9-------------12-12-------12-12/--|
B||-------10----10-10-------10-10---------|
G||---------------------------------------|
D||---------------------------------------|
A||---------------------------------------|
E||---------------------------------------|

Afther Veres 2 :
E||--------------------7-----------------------5---
B||--------------------6-----------------------4---    
G||-4-4--4--4--4--4--4-5----4-4--4--4--4--4--4-3---
D||-4-4--4--4--4--4--4------4-4--4--4--4--4--4-----
A||-2-2--2--2--2--2--2------2-2--2--2--2--2--2-----
E||-2-2--2--2--2--2--2------2-2--2--2--2--2--2-----PM....................      ..................    

Solo 2:
E||-------------------------------------------------|
B||-------------------------------------------------|
G||--9b-------------9b--9-9r-7---7-9-7------------11|
D||----------------------------9-------9-7-9-9-7-9--|
A||-------------------------------------------------|
E||-------------------------------------------------|
                                              
E||------------------------------9----------------9-10-9----------------9-|
B||--------------------------------10----------10--------10----------10---|
G||--9--7-----------------------------11----11--------------11----11------|
D||-------9--9--7-9--7--9-9--------------12--------------------12---------|
A||-----------------------------------------------------------------------|
E||-----------------------------------------------------------------------|

E||10-10-9-9-12-12-9-9-10-9----------------9---10--12--10-12--9---10h9---|
B||-------------------------10----------10-----------------------------12|
G||----------------------------11----11----------------------------------|
D||-------------------------------12-------------------------------------|
A||----------------------------------------------------------------------|
E||----------------------------------------------------------------------|
                                                                             
E||--------------------------------12h9----12--12h9----12h9----12--12h9----|
B||-10-12--9--10-9----------------------10----------10------10----------10-|
G||---------------------9----11--------------------------------------------|
D||----------------12-----12-----------------------------------------------|
A||------------------------------------------------------------------------|
E||------------------------------------------------------------------------|
                                                                       
E||--12/14-14-14-14--10-10-12-12-9-9-10-10---------9--------------------|
B||----------------------------------------12-12------7-9b---------9r-7-|
G||---------------------------------------------------------------------|
D||---------------------------------------------------------------------|
A||---------------------------------------------------------------------|
E||---------------------------------------------------------------------|
                                                                     
E||---------------------------12h10----10--10--10---10-10-12-12h10----|
B||----9b-9--7-9~---7-7-7-----------10-----------------------------12-|
G||-------------------------------------------------------------------|
D||-------------------------------------------------------------------|
A||-------------------------------------------------------------------|
E||-------------------------------------------------------------------|
                                                                             
E||12h10----10--10--10---10-10-10h12h10------10----------------------------|
B||------10-----------------------------12------12--10--9--10~--9--10h9----|
G||---------------------------------------------------------------------11-|
D||------------------------------------------------------------------------|
A||------------------------------------------------------------------------|
E||------------------------------------------------------------------------|
                                                            
E||----------------------------------------------------------|
B||--9b------------------------------------------------------|
G||--------7-7-9--7-11--9h7-9h7---10-7-----------------------|
D||-------------------------------------9--------7----9-9-7--|
A||----------------------------------------7--9-----9--------|
E||----------------------------------------------------------|
                                                          
thats all... Enjoy..don't forget to rate ;)!
Comments