Incubus - Deep Inside Chords & Tabs

 

Deep Inside Chords & Tabs

Incubus Chords & Tabs

Version: 3 Type: Tab 0 ratings
1 star 2 stars 3 stars 4 stars 5 stars
comments

Deep Inside Tab

I spent a few hours today tabbing out the entire song...I believe these tabs, 
or the most part, are right on.  However, this is my first tab scripting I have 
done in my life, so please don't shoot me.  ps.  I don't know the last solo which 
happens for the last 30 seconds of the song, but the rest is pretty damn good.

e|-------------19---------------10---10-10-10-10-----------------------------|
B|------------------------------9----9--9--9--9------------------------------|
G|---13----------15-------------9----9--9--9--9------------------------------|
D|---15-----------------------9------9--9--9--9------------------------------|
A|---------------------------------------------------------------------------|
E|---------------------------------------------------------------------------|

e|---------------------------------------------------------------------------|
B|----9-9-9-7-7h9---9-7-7-7-7h9-----9-9-9-7-7h9------9-9-7-7-10-10-----------|
G|----9-9-9-7-7h9---9-7-7-7-7h9-----9-9-9-7-7h9------9-9-7-7-11-11-----------|
D|--9-9-9-9-9-9---9--------9------9-9-9-9-9-9------9-9-9-9-9-9--9------------|
A|---------------------------------------------------------------------------|
E|---------------------------------------------------------------------------|

e|---------------------------------------------------------------------------|
B|----9-9-9-7-7h9---9-7-7-7-7h9-----9-9-9-7-7h9----------10/12-10-10---------|
G|----9-9-9-7-7h9---9-7-7-7-7h9-----9-9-9-7-7h9-----7/9-7--------------------|
D|--9-9-9-9-9-9---9--------9------9-9-9-9-9-9------9-------------------------|
A|---------------------------------------------------------------------------|
E|---------------------------------------------------------------------------|

e|--------------------------------------------16--16-16-15-16----------------|
B|--------------------------------------------15--15-15-15-15----------------|
G|--7--------------7--------------7-----------16--16-16-16-16----------------|
D|---9-9-9-9-9------9-9-9-9-9------9-9-9-9-9---------------------------------|
A|---------------------------------------------------------------------------|
E|---------------------------------------------------------------------------|

e|---------------------------------------------------------------------------|
B|--------------10-10-------------10-10-------------10-10-10-9---------------|
G|--7-----------7--7--7-----------7--7--7-----------7--7--7--7---------------|
D|---9-9-9-9-9--9--9---9-9-9-9-9--9--9---9-9-9-9-9--9--9--9--9---------------|
A|---------------------------------------------------------------------------|
E|---------------------------------------------------------------------------|

(Heavy Distortion)
e|---------------------------------------------------------------------------|
B|---------------------------------------------------------------------------|
G|--9-9-9-9-9--6-6-6-6-6-----------------------------------------------------|
D|--9-9-9-9-9--6-6-6-6-6--7-7-7-7-7--8-8-8-8-8-------------------------------|
A|--7-7-7-7-7--4-4-4-4-4--7-7-7-7-7--8-8-8-8-8-------------------------------|
E|--7-7-7-7-7--4-4-4-4-4--5-5-5-5-5--6-6-6-6-6-------------------------------|

e|---------------------------------------------------------------------------|
B|----9-9-9-7-7h9---9-7-7-7-7h9-----9-9-9-7-7h9------9-9-7-7-10-10-----------|
G|----9-9-9-7-7h9---9-7-7-7-7h9-----9-9-9-7-7h9------9-9-7-7-11-11-----------|
D|--9-9-9-9-9-9---9--------9------9-9-9-9-9-9------9-9-9-9-9-9--9------------|
A|---------------------------------------------------------------------------|
E|---------------------------------------------------------------------------|

e|---------------------------------------------------------------------------|
B|----9-9-9-7-7h9---9-7-7-7-7h9-----9-9-9-7-7h9----------10/12-10-10---------|
G|----9-9-9-7-7h9---9-7-7-7-7h9-----9-9-9-7-7h9-----7/9-7--------------------|
D|--9-9-9-9-9-9---9--------9------9-9-9-9-9-9------9-------------------------|
A|---------------------------------------------------------------------------|
E|---------------------------------------------------------------------------|

[ Tab from: http://www.guitartabs.cc/tabs/i/incubus/deep_inside_tab_ver_3.html ]
e|--7-7-6---5-5-4---3-3-2-3------( x2 )--------------------------------------|
B|--8-8-7---6-6-5---4-4-4-5--------------------------------------------------|
G|--7-7-6---5-5-4---3-3-2-3--------------------------------------------------|
D|--9-9-8---7-7-6---5-5-4-5--------------------------------------------------|
A|--9-9-8---7-7-6---5-5-4-5--------------------------------------------------|
E|---------------------------------------------------------------------------|

e|---------------------------------------------------------------------------|
B|-----------------------------------10--10----------------------------------|
G|---10-7----------------------------11--11----------------------------------|
D|-------9-7-9-7-9-9-7-------------------------------------------------------|
A|--------9------------------------------------------------------------------|
E|---------------------------------------------------------------------------|

e|-------------------------------------------------------10-9----------------|
B|-----------------------------------------------------9---------------------|
G|--7--------------7--------------7--------------7---7-----------------------|
D|---9-9-9-9-9------9-9-9-9-9------9-9-9-9-9------9-9------------------------|
A|---------------------------------------------------------------------------|
E|---------------------------------------------------------------------------|

e|---------------------------------------------------------------------------|
B|--------------10-10-------------10-10-------------10-10-10-9---------------|
G|--7-----------7--7--7-----------7--7--7-----------7--7--7--7---------------|
D|---9-9-9-9-9--9--9---9-9-9-9-9--9--9---9-9-9-9-9--9--9--9--9---------------|
A|---------------------------------------------------------------------------|
E|---------------------------------------------------------------------------|

(Heavy Distortion)
e|---------------------------------------------------------------------------|
B|---------------------------------------------------------------------------|
G|--9-9-9-9-9--6-6-6-6-6-----------------------------------------------------|
D|--9-9-9-9-9--6-6-6-6-6--7-7-7-7-7--8-8-8-8-8-------------------------------|
A|--7-7-7-7-7--4-4-4-4-4--7-7-7-7-7--8-8-8-8-8-------------------------------|
E|--7-7-7-7-7--4-4-4-4-4--5-5-5-5-5--6-6-6-6-6-------------------------------|

e|-----------------------------------------------------------------( x2 )----|
B|----9-9-9-7-7h9---9-7-7-7-7h9-----9-9-9-7-7h9------9-9-7-7-10-10-----------|
G|----9-9-9-7-7h9---9-7-7-7-7h9-----9-9-9-7-7h9------9-9-7-7-11-11-----------|
D|--9-9-9-9-9-9---9--------9------9-9-9-9-9-9------9-9-9-9-9-9--9------------|
A|---------------------------------------------------------------------------|
E|---------------------------------------------------------------------------|

e|---------------------------------------------------------------------------|
B|---------------------------------------------------------------------------|
G|------------------------------------------------9-9------9-9---------------|
D|--11/9--11h12--11/9--11h12--11/9--11h12--11---------9-9------9-9-----------|
A|-------------------------------------------12-12---------------------------|
E|---------------------------------------------------------------------------|


e|---------------------------------------------------------------------------|
B|---------------------------------------------------------------------------|
G|----------------------------------------------9-9----9-9-----9-9h11-9-11---|
D|--11/9--11h12--11/9-11-11h12-11h12--11/9-9-9-9---9-9-----9-9-------------12|
A|---------------------------------------------------------------------------|
E|---------------------------------------------------------------------------|

e|---------------------------------------------------------------------------|
B|----------------------10-10-------------------------8-8--------------------|
G|---------------------------------------------------------------------------|
D|--9-9-11-11h12--12-12------12/9---7-7-9-9h10--10-10-----10/7---------------|
A|---------------------------------------------------------------------------|
E|---------------------------------------------------------------------------|
Comments