Incubus - Deep Inside Chords & Tabs

 

Deep Inside Chords & Tabs

Incubus Chords & Tabs

Version: 2 Type: Bass Tab 0 ratings
1 star 2 stars 3 stars 4 stars 5 stars
comments

Deep Inside Bass Tab

Song: Deep Inside
Artist: Incubus	
From Album: S.C.I.E.N.C.E
Tab By: Cavan Papp (cpapp@home.com)
         
       Main Riff                             Alternate Riff
G-----|------------------------------|------------------------------
D-----|----0-2-0-2-0-----------------|----0-2-0-2-0-----------------
A-12/2|--2-----------2---0-2-0-2-0-2-|--2------------2---2-2-----4-2
E-----|------------------------------|-----------------------5-4----
                         

Verse
G---------------------------------------------------------
D--------------------------------------------4h5----------
A--1h2---2-2-2--1h2---2-2-2---1h2--2-2-2---------5-4-3-2--
E---------------------------------------------------------

G-----------------------------2h3--------------------------------
D-------------1/3----------------------------2--4----------------
A-1h2---2-2-2-----1h2---2-2-2----1h2---2-2-2------1h2--2-2-2-----
E-------------------------------------------------------------4-3

Heavy Part
G-------------------------------------
D-------------------------------------
A-----------------------------2-2-2-2-
E--2-2-2-2--4-4-4-4--0-0-0-0----------
[ Tab from: http://www.guitartabs.cc/tabs/i/incubus/deep_inside_btab_ver_2.html ]
(Mellow part: "SEEEEE...Straight...I've got to find my way home..."
This part is completly up to what you think of it.  
I tried, but it is hard to figure it all out)

G--------------------------------------
D-------------------------------------- (Repeat 2x)
A----2-----0----------2--4---2---------
E-4-----2-----2--0--4-----------4--2-0-


Start of Guitar Solo
At the start of the Solo it sounds like a variation of the main riff, 
this is what I got out of it.  But again it is up to you.
G---------------------
D-------0-2--0-2-1-0--
A--2------------------
E---------------------
After repeating that for a couple of times go back into the "Mellow Part Riff"

Then...Verse...

Last Heavy Part			Alternate Riff
G--------------------		G--------------------
D--------------------		D--------------------
A-----------------0--		A--------------------
E---2-2-2-2-0-2-2----         	E-2-2-2-2-0--4-3-2---

Last Bit of Heavy Part:
G-----------------
D-----------------
A--------------2--	....I know excatly where we are, where the fuck are we?!
E-2---4---0-------

Back into Main Riff....and that's about it!
Hope you enjoy it.  It is a kick ass song, there are a couple variations that
I didn't bother to write...


Comments