Incubus - Crowded Elevator Chords & Tabs

 

Crowded Elevator Chords & Tabs

Incubus Chords & Tabs

Version: 5 Type: Tab 0 ratings
1 star 2 stars 3 stars 4 stars 5 stars
comments

Crowded Elevator Tab

Ok, from my "version 1" I have progressed to have worked out the whole of this
song, sounds all good to me, well it should do, I was the one that bloody worked
it out, but yeah, the distortion starts up after the intro, and it's played in
standard tuning.  that's about all you need to know for it, enjoy.

Intro
|----------------------
|----------------------
|----------------------
|--------------------0-
|-----5---7^-0-----5---
|-0-0---0------4-4-----

|---------------------------    -0-0-0-0-0-----------------
|---------------------------    -5-5-5-5-5-----------------
|---------------------------    ---------------------------
|---------------------------    ---------------0-------0---
|-2-7-------7-------7---7---    -------------5-------5---2-
|-0---5-0-4---5-0-4---4---4- x3 -----------4-----4-4-----0-

Verse
|----------------------
|----------------------
|----------------------
|--------------------0-
|-----5---7^-0-----5---
|-0-0---0------4-4-----

|----------------------------
|----------------------------
|-9-9-9--5-5-5---------------
|-9-9-9--5-5-5--4-4-4--2-2-2-
|-7-7-7--3-3-3--2-2-2--0-0-0-
|----------------------------

|--------------------------------
|--------------------------------
|--------------------------------
|--------------------0-------0---
|-----5---7^-0-----5-------5---2-
|-0-0---0------4-4-----4-4-----0-

Chorus
|-------------------------------0-0-0-0-0-----------------
|-------------------------------5-5-5-5-5-----------------
|---------------------------------------------------------
|--------------------0------0-----------------0-------0---
|-----5---7^-0-----5------5---2-------------5-------5---2-
|-0-0---0------4-4-----4-4----0-----------4-----4-4-----0-

|----------------------
|----------------------
|----------------------
|--------------------0-
|-----5---7^-0-----5---
|-0-0---0------4-4-----
[ Tab from: http://www.guitartabs.cc/tabs/i/incubus/crowded_elevator_tab_ver_5.html ]
|----------------------------
|----------------------------
|-9-9-9--5-5-5---------------
|-9-9-9--5-5-5--4-4-4--2-2-2-
|-7-7-7--3-3-3--2-2-2--0-0-0-
|----------------------------

|--------------------------------
|--------------------------------
|--------------------------------
|--------------------0-------0---
|-----5---7^-0-----5-------5---2-
|-0-0---0------4-4-----4-4-----0-

Chorus
|-------------------------------0-0-0-0-0-----------------
|-------------------------------5-5-5-5-5-----------------
|---------------------------------------------------------
|--------------------0------0-----------------0-------0---
|-----5---7^-0-----5------5---2-------------5-------5---2-
|-0-0---0------4-4-----4-4----0-----------4-----4-4-----0-

There's a litte bit here played on bass and then this comes in

|-----------------------------------
|------8------8--------11--------11-
|----9------9-------12--------12----
|-----------------------------------
|-7-------------10------------------
|--------8----------------11--------

|----------------------------
|----------------------------
|-9-9-9--5-5-5---------------
|-9-9-9--5-5-5--4-4-4--2-2-2-
|-7-7-7--3-3-3--2-2-2--0-0-0-
|----------------------------

Chorus
|-------------------------------0-0-0-0-0-----------------
|-------------------------------5-5-5-5-5-----------------
|---------------------------------------------------------
|--------------------0------0-----------------0-------0---
|-----5---7^-0-----5------5---2-------------5-------5---2-
|-0-0---0------4-4-----4-4----0-----------4-----4-4-----0-

|---------------------------    -0-0-0-0-0------------------
|---------------------------    -5-5-5-5-5------------------
|---------------------------    ----------------------------
|---------------------------    ----------------0-------0---
|-7--------7--------7---7---    --------------5-------5---2-
|---5-0-4----5-0-4----4---4- x3 ------------4-----4-4-----0-

FINITO
Comments